For Once In My Life - Guitar Tabs

(/) Slide Up  (\) Slide Down  (h) Hammer On  (p) Pull Off  (b) Bend (r) Release (v) Vibrato (x) Muted

E|--5-----5-----5-----5----|---6-----6-----6-----6----|---6-----6-----6-----3----|---5-----4-----5-----5----|
B|--6-----6-----6-----4----|---8-----7-----6-----6----|---8-----7-----6-----5----|---6-----5-----6-----6----|
G|--5-----6-----7-----5----|---7-----7-----7-----7----|---7-----7-----7-----5----|---5-----5-----5-----5----|
D|-------------------------|--------------------------|--------------------------|--------------------------|
A|-------------------------|--------------------------|--------------------------|--------------------------|
E|-------------------------|--------------------------|--------------------------|--------------------------|

E|--5-----------5----------|---5-----------3----------|---5-----------5----------|
B|--6-----------6----------|---6-----------3----------|---5-----------6----------|
G|--5-----------6----------|---7-----------3----------|---5-----------7----------|
D|-------------------------|--------------------------|--------------------------|
A|-------------------------|--------------------------|--------------------------|
E|-------------------------|--------------------------|--------------------------|

E|--3-----5-----5-----7--6--5--3--3-----|
B|--3-----5-----6-----8--7--6--3--5-----|
G|--3-----5-----7-----7--6--5--3--3-----|
D|--------------------9--8--7--3--5-----|
A|--------------------7--6--5--5--3-----|
E|-----------------------------3--------|

E|--5-----5-----5-----5----|---6-----------3----------|---6-----6-----6-----3----|---5-----5-----3----------|
B|--6-----6-----6-----4----|---8-----------3----------|---8-----7-----6-----5----|---6-----5-----4----------|
G|--5-----6-----7-----5----|---7-----------3----------|---7-----7-----7-----5----|---5-----5-----5----------|
D|-------------------------|--------------------------|--------------------------|--------------------------|
A|-------------------------|--------------------------|--------------------------|--------------------------|
E|-------------------------|--------------------------|--------------------------|--------------------------|

E|--5-----------5----------|---5-----------7----------|---5-----5-----3----------|
B|--6-----------6----------|---6-----------6----------|---5-----6-----3----------|
G|--5-----------6----------|---7-----------7----------|---5-----7-----3----------|
D|-------------------------|--------------------------|--------------------------|
A|-------------------------|--------------------------|--------------------------|
E|-------------------------|--------------------------|--------------------------|

E|--------------4---------------------|-----------------5------------------------|
B|--10-10-8-----4-----6--------10-----|-----11-11-9-----5-----7-----------11-----|
G|--10-10-8-----5-----6--------9------|-----11-11-9-----6-----7-----------10-----|
D|--10-10-8-----6-----6--------8------|-----11-11-9-----7-----7-----------9------|
A|--8--8--6-----6-----4---------------|-----9--9--7-----7-----5------------------|
E|--------------4--------------8------|-----------------5-----------------9------|

Use manual mode to free up cursor. Paste any tab in acousterr tab maker and we'll play it !!!

About For Once in My Life : "For Once in My Life" is written by Ron Miller and Orlando Murden for Motown Records' Stein & Van Stock publishing It was written and first recorded as a slow ballad . The Four Tops, the Temptations, Diana Ross and Tony Bennett also recorded . Stevie Wonder's version of "For Once in My Life" was a top-three hit in the United States and the United Kingdom in late 1968 and early 1969 . The uptempo arrangement was recorded by Wonder in It was released in 1968. It was released as part of album For Once in My Life. The genre is soul. The track was release in 1968. For Once in My Life has a significant contribution from artist(s) Ron Miller.

About Stevie Wonder - Stevie Wonder is one of the most successful songwriters and musicians . Wonder is a prominent figure in popular music during the second-half of the 20th century . Stevie Wonder signed Motown's Tamla label at the age of 11 . In 1963, the single "Fingertips" was a number one hit on the Billboard Hot 100 when Wonder was 13 . Stevie Wonder's "classic period" was noted for his funky style of playing on the keyboard . In 1979, Wonder made use of the early music sampler Computer Music Melodian . Stevie Wonder's music is influenced by genre(s) - pop r&b soul funk jazz.

About For Once in My Life (Stevie Wonder album) : Stevie Wonder's ninth studio album released in November 1968 . The album continued his growth as a vocalist, songwriter and producer . It featured songs like "Shoo-Be-Doo-Da-Day" and "You Met Your Match" "I'd Be a Fool Right Now" would be remixed in 1977 for Wonder's Looking Back Anthology. For Once in My Life (Stevie Wonder album)'s most popular songs include You Met Your Match. It had a contribution from notable artists like Stevie Wonder. Its music is influenced by genres - soul.

tabs and chords, guitar tabs, music transcription, music technology, deep learning, music information retrieval, transcribe into tabs & chords, chordify, music renditions, songsterr, reverbnation, tabulature, bollywood chords, ultimate guitar, yousician, guitar lessons, acoustic guitar, electric guitar, guitar tuner, 911 tabs