Bass Tabs for Foo Fighters - These Days

Foo Fighters - These Days

Pos-Intro
G|--------------------------------------------
D|--------------------------------------------
A|--------------------------------------------
E|--5--5--5--5--5--5--------------5--5--5--5--

Verse
G|--------------------------------------------
D|--------------------7--7--7--7--7--7--7--7--
A|-----------------7--------------------------
E|--5--5--5--5--5-----------------------------

Pre-Chorus
G|-----------------------------------------------------------
D|-----------------------------------------------------------
A|--3--3--3--3--------------5--5--5--5-----------------2--2--
E|--------------3--3--3--3--------------5--5--5--5--5--------

Chorus

G|-----------------------------------------------------------
D|-----------------------------------------------------------
A|--------------------------------7--------7-----7--------7--
E|--5--5--0--5--5--5--5--0--5--0-----0--0-----0-----0--0-----

G|-----------------------------------------
D|-----------------------------------------
A|--3--3--2--3--3--3--5--5--3--5--5--5--7--
E|-----------------------------------------

Pos-Chorus & Ending
G|-----------------------------------------------------
D|-----------------------------------------------------
A|--0--0--0---5/12-12-12----0--0--0---5/12-12-12-12-12-
E|-----------------------------------------------------
tabs and chords, guitar tabs, music transcription, music technology, deep learning, music information retrieval, transcribe into tabs & chords, chordify, music renditions, songsterr, reverbnation, tabulature, bollywood chords, ultimate guitar, yousician, guitar lessons, acoustic guitar, electric guitar, guitar tuner, 911 tabs