Bass Tabs for Foo Fighters - Learn To Fly

Foo Fighters - Learn To Fly

Chorus & Intro
G|--------------------------------------------------------------------------------------------------
D|--------------------------------------------------------------------------------------------------
A|--2-----2--2-----2--2--2--------------------------------------------------------------------------
E|--------------------------2-----2--2-----2--2--2--0-----0--0-----0--0--0--0-----0--0-----0--0--0--

Verse
G|-----------------
D|-----------------
A|--2--------------
E|--------2-----0--

Verse End
G|--------------------------------
D|--------------------------------
A|--------------------------------
E|--0--0--0--0--0--0--0--0--0--0--

Make My Way Back Home
G|--------------------------------------------
D|--------------------------------------------
A|--------------------------------------------
E|--3--3--3--3--3--3--3--3--5--5--5--5--5--5--

Bridge
G|--------------------------------------------------
D|--------------------------------------------------
A|--2-----2--2-----2--2--2--------------------------
E|--------------------------3-----3--3-----3--3--3--

G|--------------------------------------------------
D|--------------------------------------------------         2x
A|--5-----5--5-----5--5--5--------------------------
E|--------------------------0-----0--0-----0--2--2--

G|-----------------------------------------------------
D|-----------------------------------------------------
A|-----------------------------------------------------
E|--3-----3--3-----3--3--3-----5-----5--5-----5--5--5--

Double Make My Way Back Home
G|--------------------------------------------------------------------------
D|--------------------------------------------------------------------------
A|-------------------------------------------------------------------------
E|--3--3--3--3--3--3--3--3--5--5--5--5--5--5--5--0--0--0--0--0--0--2--2--3--

Ending
G|-----------------------------------------------------------
D|--------------------------------------------------2-----4--
A|--2-----------------------------------------2--------------
E|-----------------------------------------------------------
tabs and chords, guitar tabs, music transcription, music technology, deep learning, music information retrieval, transcribe into tabs & chords, chordify, music renditions, songsterr, reverbnation, tabulature, bollywood chords, ultimate guitar, yousician, guitar lessons, acoustic guitar, electric guitar, guitar tuner, 911 tabs