Bass Tabs for Foo Fighers - Everlong

Foo Fighers - Everlong

Verse
G|--------------------------------------------------
D|--------------------------------------------------
A|--------5-----5--5-----5--------5-----5--5-----5--
D|--0--0-----0--------0-----0--0-----0--------0-----

G|--------------------------------------------------------------------------------------
D|--------------------------------------------------------------------------------------
A|--2--2--2--2--2--2--2--2--------------------2--2--2--2--2--2--2--2--2--2--2--2--2--2--
D|--------------------------5--5--5--5--5--5--------------------------------------------

Pre-Chorus
G|-----------------------------------------------------------------------------------------------
D|-----------------------------------------------------------------------------------------------
A|-----------------------------------------------------------------------------------------------
D|--0--0--0--0--0--0--0--0--0--0--0--7--7--7--7--7--7--7--0--0--0--0--0--0--0--0--0--0--0--0--0--

Chorus
G|-----------------------------------------------
D|-----------------------------------------------  2x
A|--2--2--2--2--2-----------------5--5--5--5--5--
D|-----------------5--5--5--5--5-----------------

G|-----------------------------------------------------
D|-----------------------------------------------------
A|--2--2--2--2--2--------------5--5--5-----------------
D|-----------------5--5--5--5-----------7--7--7--5--5--

Last Pre-Chorus
G|-----------------------------------------------------------------------
D|-----------------------------------------------------------------------
A|-----------------------------------------------------------------------
D|--0--0--0--0--0--0--0--0--0--0--0--0--0--0--0--0--0--0--0--0--0--0--0--
tabs and chords, guitar tabs, music transcription, music technology, deep learning, music information retrieval, transcribe into tabs & chords, chordify, music renditions, songsterr, reverbnation, tabulature, bollywood chords, ultimate guitar, yousician, guitar lessons, acoustic guitar, electric guitar, guitar tuner, 911 tabs