Bass Tabs for Follow Your Heart Tabs

(/) Slide Up  (\) Slide Down  (h) Hammer On  (p) Pull Off  (b) Bend (r) Release (v) Vibrato (x) Muted



        Well I Wish I had a a map or an Atlas.               Just to show me where my path is
G|--------------------------------------------------------------------------------------------
D|-----------------------------------------------------------9--9--9--9--------------7-----7--
A|--------------10-10-10-10----------10----10-------7-----7-----------------------5-----------
E|--8--------8--------------------8-----------------------------------------------------------

          Sometimes   I feel like I'm going astray
G|--------------------------------------------------------------------------------------------
D|-----------------------------------------------------------9--9--9--9--------------7-----7--
A|--------------10-10-10-10----------10----10-------7-----7-----------------------5-----------
E|--8--------8--------------------8-----------------------------------------------------------

            And I know its a long hard journey                Just to get to where we're going            
G|--------------------------------------------------------------------------------------------
D|-----------------------------------------------------------9--9--9--9--------------7-----7--
A|--------------10-10-10-10----------10----10-------7-----7-----------------------5-----------
E|--8--------8--------------------8-----------------------------------------------------------

            But I Wouldn't have it  any other  way
G|--------------------------------------------------
D|--------------------------------------------------
A|--------------10-10-10-10----------10----10-------
E|--8--------8--------------------8--------------0--

CHORUS

And       ALLLLLLLLLLLLLWAYS      Follow         Your        Heart                  even when
G|-----------------------------------------------------------------------------------------------
D|-----------------------------------------------------------9--9--9--9--------------7-----7-----
A|--------------10-10-10-10----------10----10-------7-----7-----------------------5--------------
E|--8--------8--------------------8--------------------------------------------------------------

Those        days                    they get   so        hard                          Re
G|--------------------------------------------------------------------------------------------
D|-----------------------------------------------------------9--9--9--9--------------7-----7--
A|--------------10-10-10-10----------10----10-------7-----7-----------------------5-----------
E|--8--------8--------------------8-----------------------------------------------------------

Re           member                  it all            has it's purpose              As long
G|--------------------------------------------------------------------------------------------
D|-----------------------------------------------------------9--9--9--9--------------7-----7--
A|--------------10-10-10-10----------10----10-------7-----7-----------------------5-----------
E|--8--------8--------------------8-----------------------------------------------------------

your  learning               it's all part of       your journey
G|-----------------------------------------------------------------------------x
D|-----------------------------------------------------------9-----------7-----
A|--------------10-10-10-10----------10----10-------7-----7-----7--5--5-----5--
E|--8--------8--------------------8--------------------------------------------
tabs and chords, guitar tabs, music transcription, music technology, deep learning, music information retrieval, transcribe into tabs & chords, chordify, music renditions, songsterr, reverbnation, tabulature, bollywood chords, ultimate guitar, yousician, guitar lessons, acoustic guitar, electric guitar, guitar tuner, 911 tabs