Guitar Tabs for Flying Narwhal

(/) Slide Up  (\) Slide Down  (h) Hammer On  (p) Pull Off  (b) Bend (r) Release (v) Vibrato (x) Muted

Tabs for Song : 

Song lyrics here
E|--------------------------------------------------
B|--------------------------------------------------
G|-----10----10----10----5-----2-----2-----2-----5--
D|--8-----8-----8-----3-----0-----0-----0-----3-----
A|--------------------------------------------------
D|--------------------------------------------------

Verse Part 2 4x
E|--------------------------------------------------
B|--11-11-11-11-11-11-6--6--3--3--3--3--3--3--6--6--
G|--10-10-10-10-10-10-5--5--2--2--2--2--2--2--5--5--
D|--8--8--8--8--8--8--3--3--0--0--0--0--0--0--3--3--
A|--------------------------------------------------
D|--------------------------------------------------

Pre-chorus 2x
E|--------------------------------------------------------------------------------------
B|--3--3-----8--6--10-----3--3-----8--6--5------3--3----8--10-11----11----8-----6-----5--
G|--2--2-----7--5--9------2--2-----7--5--4------2--2----7--9--10----10----7-----5-----4--
D|--0--0-----5--3--7------0--0-----5--3--2------0--0----5--7--8-----8-----5-----3-----2--
A|--------------------------------------------------------------------------------------
D|--------------------------------------------------------------------------------------

Chorus 4x
E|--------------------------------------------------------------------------
B|--------------------------------------------------------------------------
G|--------------------------------------------------------------------------
D|-----3-----5-----3-----2-----3-----2-----7-----8-----7-----5-----7-----5--
A|--1-----1-----1-----0-----0-----0-----5-----5-----5-----3-----3-----3-----
D|--------------------------------------------------------------------------

Bridge 4x
E|-----------------------------------------------------------------------------------------------------------------------------------------------------
B|-----------------------------------------------------------------------------------------------------------------------------------------------------
G|-----------------------------------------------------------------------------------------------------------------------------------------------------
D|-----------------------------------------------------------------------------------------------------------------------------------------------------
A|-----------------------------------------------------------------------------------------------------------------------------------------------------
D|--8--8--8--8--8--8--3--3--3--3--3--3--10-10-10-10-10-10-0--0--0--0--0--0--8--8--8--8--8--8--3--3--3--3--3--3--0--0--0--0--0--0--5--5--5--5--5--5--

Bonus my chorus part
E|-----------------------------------------------------------------------------
B|-----------------------------------------------------------------------------
G|-----------------------------------15-14-------------15-14-14-15-17-15-14----
D|--------------------15----17-14----------------------------------------------
A|--13----13-15-17-------------------------------------------------------------
D|-----------------------------------------------------------------------------

DUM DUMs/build to the bridge
E|-----------------------------------
B|-----------------------------------
G|-----------------------------------
D|--0--0-----0--0-----0--0-----0--0--
A|--0--0-----0--0-----0--0-----0--0--
D|--0--0-----0--0-----0--0-----0--0--


Paste any tab in acousterr's tab maker and we'll play it !!!
Now supports capo and sound effects for vibrato/pull-off/hammer/bends/mutes etc !!! Checkout help section
tabs and chords, guitar tabs, music contests, music covers, songsterr, reverbnation, renditions, tabulature, bollywood chords, ultimate guitar, yousician, guitar lessons, torrins, fender, gibson, acoustic guitar, electric guitar, youtube covers, gootar, guitar tuner, A-Z tabs, 911 tabs