Guitar Tabs for Flyin Away

(/) Slide Up  (\) Slide Down  (h) Hammer On  (p) Pull Off  (b) Bend (r) Release (v) Vibrato (x) Muted

Tabs for Song : 


Intro (laisser sonner)
    F              Am             F              Am
E|--------------------------------------------------------------------
B|--------0--------------0--------------0--------------0--------------
G|-----2--------------2--------------2--------------2-----------------
D|--3--------------0--------------3--------------0--------------------
A|--------------------------------------------------------------------
E|--------------------------------------------------------------------

Couplet 1 (laisser sonner)
    F              Am             F              Am             F              Am             F           
E|-----------------------------------------------------------------------------------------------------
B|--------0--------------0--------------0--------------0--------------0--------------0--------------0--
G|-----2--------------2--------------2--------------2--------------2--------------2--------------2-----
D|--3--------------0--------------3--------------0--------------3--------------0--------------3--------
A|-----------------------------------------------------------------------------------------------------
E|-----------------------------------------------------------------------------------------------------
Pré refrain
    C              C/B            Am             G     G
E|-----------------------------------------------3-----3--------------
B|--------0--------------0--------------0--------3-----3--------------
G|-----2--------------2--------------------------4-----4--------------
D|-----------------------------------2-----------5-----5--------------
A|--3--------------2--------------0--------------5-----5--------------
E|-----------------------------------------------3-----3--------------
Refrain
    F     F        G     G        Am    Am       F     F     F  F  F
E|--1-----1--------3-----3--------0-----0--------1-----1-----1--1--1--
B|--1-----1--------3-----3--------1-----1--------1-----1-----1--1--1--
G|--2-----2--------4-----4--------2-----2--------2-----2-----2--2--2--
D|--3-----3--------5-----5--------2-----2--------3-----3-----3--3--3--
A|--3-----3--------5-----5--------0-----0--------3-----3-----3--3--3--
E|--1-----1--------3-----3-----------------------1-----1-----1--1--1--
Refrain
    F     F        G    G         Am   Am        D  D  D           D  D  D           F  F  F
E|--1-----1--------3-----3--------0-----0--------2--2--2-----------2--2--2-----------1--1--1-----
B|--1-----1--------3-----3--------1-----1--------3--3--3-----------3--3--3-----------1--1--1-----
G|--2-----2--------4-----4--------2-----2--------2--2--2-----------2--2--2-----------2--2--2-----
D|--3-----3--------5-----5--------2-----2--------0--0--0-----------0--0--0-----------3--3--3-----
A|--3-----3--------5-----5--------0-----0--------------------------------------------3--3--3-----
E|--1-----1--------3-----3-----------------------------------------------------------1--1--1-----
Post Refrain (arpège + complex sauf dernier)
   C               D              C           D
E|--------------------------------------------------------
B|-----------1--------------3--------------1-----------3--
G|--------0--------------0--------------0-----------0-----
D|-----2--------------4--------------2-----------4--------
A|--3--------------5--------------3-----------5-----------
E|-----------------------------------------------------

Couple 2
Refain 2 (idem refrain 1)

Bridge (avant pré refrain 2)
F                              C#          D#          Fm          Fm         C#           D#          F
E|--1--1--1--1--1--1-----------4-----------6-----------1-----------1-----------4-----------6-----------1--
B|--1--1--1--1--1--1-----------6-----------8-----------1-----------1-----------6-----------8-----------1--
G|--2--2--2--2--2--2-----------6-----------8-----------1-----------1-----------6-----------8-----------2--
D|--3--3--3--3--3--3-----------6-----------8-----------3-----------3-----------6-----------8-----------3--
A|--3--3--3--3--3--3-----------4-----------6-----------3-----------3-----------4-----------6-----------3--
E|--1--1--1--1--1--1-----------------------------------1-----------1-----------------------------------1--

Refrain juste guitare/basse
    F              G           Am          F                 F  F  F  F
E|--1--------------3-----------0-----------1-----------------1--1--1--1--
B|--1--------------3-----------1-----------1-----------------1--1--1--1--
G|--2--------------4-----------2-----------2-----------------2--2--2--2--
D|--3--------------5-----------2-----------3-----------------3--3--3--3--
A|--3--------------5-----------0-----------3-----------------3--3--3--3--
E|--1--------------3-----------------------1-----------------1--1--1--1--

Dernier refrain (idem refrain 1)
    F     F        G     G        Am    Am       F     F     F  F  F
E|--1-----1--------3-----3--------0-----0--------1-----1-----1--1--1--
B|--1-----1--------3-----3--------1-----1--------1-----1-----1--1--1--
G|--2-----2--------4-----4--------2-----2--------2-----2-----2--2--2--
D|--3-----3--------5-----5--------2-----2--------3-----3-----3--3--3--
A|--3-----3--------5-----5--------0-----0--------3-----3-----3--3--3--
E|--1-----1--------3-----3-----------------------1-----1-----1--1--1--

Dernier refrain
    F     F        G    G         Am   Am        D  D  D           D  D  D           F  F  F
E|--1-----1--------3-----3--------0-----0--------2--2--2-----------2--2--2-----------1--1--1-----
B|--1-----1--------3-----3--------1-----1--------3--3--3-----------3--3--3-----------1--1--1-----
G|--2-----2--------4-----4--------2-----2--------2--2--2-----------2--2--2-----------2--2--2-----
D|--3-----3--------5-----5--------2-----2--------0--0--0-----------0--0--0-----------3--3--3-----
A|--3-----3--------5-----5--------0-----0--------------------------------------------3--3--3-----
E|--1-----1--------3-----3-----------------------------------------------------------1--1--1-----

Post refrain final
    C               D              C           D
E|--------------------------------------------------------
B|-----------1--------------3--------------1-----------3--
G|--------0--------------0--------------0-----------0-----
D|-----2--------------4--------------2-----------4--------
A|--3--------------5--------------3-----------5-----------
E|-----------------------------------------------------



tabs and chords, guitar tabs, music transcription, music technology, deep learning, music information retrieval, transcribe into tabs & chords, chordify, music renditions, songsterr, reverbnation, tabulature, bollywood chords, ultimate guitar, yousician, guitar lessons, acoustic guitar, electric guitar, guitar tuner, 911 tabs