Guitar Tabs for Fly Me To The Moon (w/ A Rap Verse)

(/) Slide Up  (\) Slide Down  (h) Hammer On  (p) Pull Off  (b) Bend (r) Release (v) Vibrato (x) Muted

Tabs for Song : 
BPM : 200

        They say that every day the universe expands and   we discover things that we don't understand
E|-----------------------------------------------------------------------------------------------------
B|-----------------------------------------------------------6-----------------------------------------
G|--5--------------------------------------------------------5-----------------------------------------
D|--5--------------------------------------------------------------------------------------------------
A|-----------------------------------------------------------5-----------------------------------------
E|--5--------------------------------------------------------------------------------------------------
   Well,  dark matter ain't the only mystery at hand,
E|-----------------------------------------------------------------------------------------------------
B|--------3--------------------------------------------------------------------------------------------
G|--------4--------------------------------------------------------------------------------------------
D|--------3--------------------------------------------------------------------------------------------
A|-----------------------------------------------------------------------------------------------------
E|--------3--------------------------------------------------------------------------------------------
I'm wonderin how I got a girl like you to say that I'm her man
E|-----------------------------------------------------------------------------------------------------
B|-----------1-----------------------------------------------------------------------------------------
G|-----------------------------------------------------------------------------------------------------
D|-----------2-----------------------------------------------------------------------------------------
A|-----------3-----------------------------------------------------------------------------------------
E|-----------------------------------------------------------------------------------------------------

          It's a statistical anomaly but girl ya got me
E|-----------------x-----------------------x-----------------------------------------------------------
B|--1--1-----------x-----------------------x-----------------------------------------------------------
G|--2--2-----------x-----------------------x-----------------------------------------------------------
D|--3--3-----------x-----------------------x-----------------------------------------------------------
A|--3--3-----------x-----------------------x-----------------------------------------------------------
E|-----------------x-----------------------x-----------------------------------------------------------
          Gravity is pulling me to your heavenly body
E|-----------------x-----------------------x-----------------------------------------------------------
B|--3--3-----------x-----------------------x-----------------------------------------------------------
G|--2--2-----------x-----------------------x-----------------------------------------------------------
D|--3--3-----------x-----------------------x-----------------------------------------------------------
A|--2--2-----------x-----------------------x-----------------------------------------------------------
E|-----------------x-----------------------x-----------------------------------------------------------
          No astronomical phenomenon could ever stop me
E|-----------------x-----------------------x-----------------------------------------------------------
B|--5--5-----------x-----------------------x-----------------------------------------------------------
G|--7--7-----------x-----------------------x-----------------------------------------------------------
D|--6--6-----------x-----------------------x-----------------------------------------------------------
A|--7--7-----------x-----------------------x-----------------------------------------------------------
E|-----------------x-----------------------x-----------------------------------------------------------
          You've got a smile that every star in the galaxy copies
E|-----------------x-----------------------x-----------------------------------------------------------
B|-----------------x-----------------------x-----------------------------------------------------------
G|--5--5-----------x-----------------------x-----------------------------------------------------------
D|--5--5-----------x-----------------------x-----------------------------------------------------------
A|-----------------x-----------------------x-----------------------------------------------------------
E|--5--5-----------x-----------------------x-----------------------------------------------------------
(Start strumming here)
          The constelations couldn't make as beautiful a pattern
E|---5h------------x-----------------------x-----------------------------------------------------------
B|---5h6-----------x-----------------------x-----------------------------------------------------------
G|---5h------------x-----------------------x-----------------------------------------------------------
D|---5h7-----------x-----------------------x-----------------------------------------------------------
A|---5h------------x-----------------------x-----------------------------------------------------------
E|-----------------x-----------------------x-----------------------------------------------------------
        The conversations—every night, I ring you up like Saturn.
E|-----------------x-----------------------x-----------------------------------------------------------
B|--3--3-----------x-----------------------x-----------------------------------------------------------
G|-----------------x-----------------------x-----------------------------------------------------------
D|--4--4-----------x-----------------------x-----------------------------------------------------------
A|--5--5-----------x-----------------------x-----------------------------------------------------------
E|--3--3-----------x-----------------------x-----------------------------------------------------------
        The telescopes tell us folks that you're the coolest view.
E|-----------------x-----------------------x-----------------------------------------------------------
B|--1--1-----------x-----------------------x-----------------------------------------------------------
G|-----------------x-----------------------x-----------------------------------------------------------
D|--2--2-----------x-----------------------x-----------------------------------------------------------
A|--3--3-----------x-----------------------x-----------------------------------------------------------
E|-----------------x-----------------------x-----------------------------------------------------------
        A supernova's scootin' over to make room for you
E|-----------------x-----------------------x-----------------------------------------------------------
B|--5--5-----------x--------------5--5-----x-----------------------------------------------------------
G|--6--6-----------x--------------3--3-----x-----------------------------------------------------------
D|--5--5-----------x--------------5--5-----x-----------------------------------------------------------
A|-----------------x--------------4--4-----x-----------------------------------------------------------
E|--5--5-----------x-----------------------x-----------------------------------------------------------
        'cause you eclipse every wonder of the cosmos.
E|-----------------x-----------------------x-----------------------------------------------------------
B|---5h6-----------x-----------------------x-----------------------------------------------------------
G|---5h------------x-----------------------x-----------------------------------------------------------
D|---5h7-----------x-----------------------x-----------------------------------------------------------
A|---5h------------x-----------------------x-----------------------------------------------------------
E|-----------------x-----------------------x-----------------------------------------------------------
          It's almost unfair to them, but you're the one I want most.
E|-----------------x-----------------------x-----------------------------------------------------------
B|--3--3-----------x-----------------------x-----------------------------------------------------------
G|-----------------x-----------------------x-----------------------------------------------------------
D|--4--4-----------x-----------------------x-----------------------------------------------------------
A|--5--5-----------x-----------------------x-----------------------------------------------------------
E|--3--3-----------x-----------------------x-----------------------------------------------------------
          It's a miracle that Galileo never found you.
E|--0--0-----------x-----------------------x-----------------------------------------------------------
B|--1--1-----------x-----------------------x-----------------------------------------------------------
G|--0--0-----------x-----------------------x-----------------------------------------------------------
D|--2--2-----------x-----------------------x-----------------------------------------------------------
A|--3--3-----------x-----------------------x-----------------------------------------------------------
E|-----------------x-----------------------x-----------------------------------------------------------
        If he did, he'd say the universe revolved around you.
E|--0--------------------------------------------------------------------------------------------------
B|--0--------------------------------------------------------------------------------------------------
G|--1--------------------------------------------------------------------------------------------------
D|--2--------------------------------------------------------------------------------------------------
A|--2--------------------------------------------------------------------------------------------------
E|--0--------------------------------------------------------------------------------------------------
       Fly me to the moon,          and let me play among the stars
E|--5-----------------------5--------------------------------------------------------------------------
B|--5-----------------------6--------------------5-----------------3-----------------------------------
G|--5-----------------------5--------------------------------------4-----------------------------------
D|--5-----------------------7--------------------6-----------------3-----------------------------------
A|--------------------------5--------------------7-----------------------------------------------------
E|--5--------------------------------------------5-----------------3-----------------------------------
       Let me see what Spring is like,     on Jupiter or Mars
E|-----------------------------------------------------------------------------------------------------
B|--1-----------------6--------------------5--------------5--------------------------------------------
G|--2-----------------7-----------------------------------5--------------------------------------------
D|--2-----------------7--------------------6--------------5--------------------------------------------
A|-----------------------------------------7--------------6--------------------------------------------
E|--1-----------------7--------------------6--------------5--------------------------------------------
tabs and chords, guitar tabs, music transcription, music technology, deep learning, music information retrieval, transcribe into tabs & chords, chordify, music renditions, songsterr, reverbnation, tabulature, bollywood chords, ultimate guitar, yousician, guitar lessons, acoustic guitar, electric guitar, guitar tuner, 911 tabs