Bass Tabs for Fly Away

Tabs for Song : Fly Away
BPM : 250

Intro
G|--------------------------------------------
D|--------------------------------------------
A|--2-----2-----2-----2-----2-----2-----2-----
E|--------------------------------------------

Verse
G|--------------------------------------------------
D|--2-----------------------------------------------
A|--------------------------------------6--6--5--5--
E|-----0--0--0--0--0--0--3--4--4--4--4--------------

G|--------------------------------------------------
D|-----------------------------------------4--------
A|--4--4--4--4--4--4--4--4--2--2--2--2--6-----6--4--
E|--------------------------------------------------

Pre Chorus
G|--------------------------------------------
D|-----4--------6-----8-----4--------6-----8--
A|--6-----6--7-----9-----6-----6--7-----9-----
E|--------------------------------------------

G|--------------------------------------------------
D|--------------------------------------------------
A|--------------------------------------------------
E|--7--7--7--7--3--3--3--3--5--5--5--5--5--5--5--5--


Chorus
G|--------------------------------------------------
D|--------------------------------------------------
A|--5-----5-----5-----5-----1-----1-----1-----1-----
E|--------------------------------------------------

G|--------------------------------------------------
D|--------------------------------------------------
A|--5--5--5--5--3--3--3--3--2--2--2--2--2--2--2--2--
E|--------------------------------------------------

G|--------------------------------------------------
D|--------------------------------------------------
A|-----------------------0--1--1--1--1--1--1--1--1--
E|--3--3--3--3--3--3--3-----------------------------

G|--------------------------------------------------------------------
D|--------------------------------------------------------------------
A|--5--5--5--5--5--5--5--5--2-----2-----2-----2-----2-----2-----2-----
E|--------------------------------------------------------------------





Chorus
G|--------------------------------------------------
D|--------------------------------------------------
A|--5-----5-----5-----5-----1-----1-----1-----1-----
E|--------------------------------------------------

G|--------------------------------------------------
D|--------------------------------------------------
A|--5--5--5--5--3--3--3--3--2--2--2--2--2--2--2--2--
E|--------------------------------------------------

G|--------------------------------------------------
D|--------------------------------------------------
A|-----------------------0--1--1--1--1--1--1--1--1--
E|--3--3--3--3--3--3--3-----------------------------

G|--------------------------------------------------
D|-----------------------------------------4--------
A|--5--5--5--5--3--3--3--3--2--2--2--2--6-----6--4--
E|--------------------------------------------------

G|--------------------------------------------------
D|--------------------------------------------------
A|-----------------------0--1--1--1--1--1--1--1--1--
E|--3--3--3--3--3--3--3-----------------------------

G|--------------------------------------------------
D|--------------------------------------------------
A|--5--5--5--5--5--5--5--5--5--5--5--5--5--5--5--5--
E|--------------------------------------------------




G|--------------------------------------------------
D|-----------2--3--2--------------------------------
A|--5--5--5-----------5-----------------------------
E|-----------------------5--6--6--6--6--6--6--6--6--





G|-----------------------------------------------------
D|-----------------------------------------------------
A|--2-----2-----2-----2-----2-----2-----2--------------
E|--------------------------------------------3-----0--
tabs and chords, guitar tabs, music transcription, music technology, deep learning, music information retrieval, transcribe into tabs & chords, chordify, music renditions, songsterr, reverbnation, tabulature, bollywood chords, ultimate guitar, yousician, guitar lessons, acoustic guitar, electric guitar, guitar tuner, 911 tabs