Guitar Tabs for Flor Das Águas

FLOR DAS ÁGUAS DA ONDE VENS, PARA ONDE VAIS
E|-----------------------------------------------------------------------------------------
B|-----------------------------------------------------------------------------------------
G|--2--------------------0-----0-----0-----3-----2-----2--2--0-----2-----------------------
D|-----------------3--------------3--------------------------------------3-----------------
A|-----------------------------------------------------------------------------------------
E|-----------------------------------------------------------------------------------------

VOU FAZER A MINHA LIMPEZA NO CORAÇÃO ESTÁ MEU PAI
E|-----------------------------------------------------------------------------------
B|-----------------------------------------------------------------------------------
G|--------------------------------2-----2--2--0-----0--------------------------------
D|--3--2--0-----0-----0-----3-----------------------------3-----2-----------2-----0--
A|-----------------4--------------------------------------------------4--------------
E|-----------------------------------------------------------------------------------
tabs and chords, guitar tabs, music contests, music covers, songsterr, reverbnation, renditions, tabulature, bollywood chords, ultimate guitar, yousician, guitar lessons, torrins, fender, gibson, acoustic guitar, electric guitar, youtube covers, gootar, guitar tuner, A-Z tabs, 911 tabs