Guitar Tabs for Fix you

Tabs for song : Fix you

intro tune
e|-----------------------------------------
B|-----------------------------------------
G|-----------------------------------------
D|-----------------------------------------
A|---3---------2----------0---------2------
E|-----------------------------------------

e|-----------------------------------------
B|-----------------------------------------
G|-----------------------------------------
D|-----------------------------------------
A|---3---------2----------0---------2------
E|-----------------------------------------

when you try your best you dont succeed
e|---------0---0-----------------------------
B|---------1------1----------1---1p0---------
G|--0--0--------------0--0------------2------
D|---------------------------2---------------
A|---------------------------2--------0------
E|---------3---------------------------------


when get what you want but not what you need
e|---------0---0--------------------------------
B|---------1------1----------0---0h1p0----------
G|--0--0---------------0-----------------2------
D|---------------------------2------------------
A|---------------------------2-----------0------
E|---------3------------------------------------

when you feel so tired but cant sleep, stuck in reverse
e|---------0---0-------------------------------------0----3----------
B|---------1-------1----------0h1p0-------1---3------1---------1-----
G|--0--0---------------0--------------2--------------0---------------
D|-------------------------------------------------------------------
A|---------3--------------2-----------0--------------3------2--------
E|-------------------------------------------------------------------

and the tears come streaming down your face
e|---------0---0-----------------------------
B|---------1------1----------1---1p0---------
G|--0--0--------------0--0------------2------
D|---------------------------2---------------
A|---------------------------2--------0------
E|---------3---------------------------------

when you something you cant replace
e|---------0---0-----------------------------
B|---------1------1----------1---1p0---------
G|--0--0--------------0--0------------2------
D|---------------------------2---------------
A|---------------------------2--------0------
E|---------3---------------------------------

when you love someone but it goes to waste, could it be worse?
e|---------0---0-------------------------------------0----3----------
B|---------1-------1----------0h1p0-------1---3------1---------1-----
G|--0--0---------------0--------------2--------------0---------------
D|-------------------------------------------------------------------
A|---------3--------------2-----------0--------------3------2--------
E|-------------------------------------------------------------------

light will guide you home
e|----1---0--------------------------------
B|-------------3---1p0--------------1------
G|----------------------2p0-----2----------
D|----------------------------------3------
A|--------3--------- ---------------3------
E|-------------3-------------3-------------

and ignite your bones
e|----1---0--------------------------------
B|-------------3---1p0--------------1------
G|----------------------2p0-----2----------
D|----------------------------------3------
A|--------3--------- ---------------3------
E|-------------3-------------3-------------

and i will try to fix you
e|--------1----0-------------------0-------
B|--------1--------3------0-----1-----1----
G|---2----2--------0----0------------------
D|--------3--------------------------------
A|--------3--------3-----------------------
E|--------1--------------------------------

E|----------------------------------------
B|--------1----------0---------1-------0--
G|----------------------------------------
D|-----2----------2---------2-------2-----
A|--3----------2---------0-------2--------
E|----------------------------------------

tabs and chords, guitar tabs, music transcription, music technology, deep learning, music information retrieval, transcribe into tabs & chords, chordify, music renditions, songsterr, reverbnation, tabulature, bollywood chords, ultimate guitar, yousician, guitar lessons, acoustic guitar, electric guitar, guitar tuner, 911 tabs