Guitar Tabs for First Try

(/) Slide Up  (\) Slide Down  (h) Hammer On  (p) Pull Off  (b) Bend (r) Release (v) Vibrato (x) Muted

Tabs for Song TBD: 
 - Capo on 2nd fret
 - BPM: 300
 
Intro: 
E|--------------------------------------------------------------------------------------------------------
B|--------------------------------------------------------------------------------------------------------
G|--------------------------------------------------------------------------------------------------------
D|--------------4--------4--------4--------4--------4-----------5--------5--------5--------5--------5-----
A|--------2--2-----2--2-----2--2-----2--2-----2--2--------3--3-----3--3-----3--3-----3--3-----3--3--------
E|--------------------------------------------------------------------------------------------------------

E|-----------------------------------------------------------------------------------------------------------
B|-----------------------------------------------------------------------------------------------------------
G|-----------------------------------------------------------------------------------------------------------
D|--------7--------7--------7--------7--------7-----------4--------4--------4--------4--------4--------------
A|--5--5-----5--5-----5--5-----5--5-----5--5--------2--2-----2--2-----2--2-----2--2-----2--2-----------------
E|-----------------------------------------------------------------------------------------------------------

E|--------2-----3-----2-----0-----2-----3-----2--0--------2-----3-----2-----0-----2-----3-----2--0
B|--0--0-----0-----0-----0-----0-----0-----0--------1--1-----1-----1-----1-----1-----1-----1------
G|------------------------------------------------------------------------------------------------
D|------------------------------------------------------------------------------------------------
A|------------------------------------------------------------------------------------------------
E|------------------------------------------------------------------------------------------------

E|--------2-----3-----2-----0-----2-----3-----2--0------------------------------------------------9-
B|--3--3-----3-----3-----3-----3-----3-----3--------3--1--0-----------------0--1/--3/--5/7--7--7----
G|-----------------------------------------------------------2--0-----0--2--------------------------
D|-----------------------------------------------------------------4--------------------------------
A|--------------------------------------------------------------------------------------------------
E|--------------------------------------------------------------------------------------------------

E|-----10----9-----7-----9-----10----9--7--------9-----10----9-----7-----9-----10----9--7--------9--
B|--7-----7-----7-----7-----7-----7--------8--8-----8-----8-----8-----8-----8-----8--------10-10----
G|--------------------------------------------------------------------------------------------------
D|--------------------------------------------------------------------------------------------------
A|--------------------------------------------------------------------------------------------------
E|--------------------------------------------------------------------------------------------------

E|--------10-------9--------10-9--7--------------------------------------------------------------2-----3-----2-----
B|--10-10----10-10----10-10----------10----10-8--7-----8--7--5-----7--5--3-----5--3--2-----0--0-----0-----0-----0--
G|-----------------------------------------------------------------------------------------------------------------
D|-----------------------------------------------------------------------------------------------------------------
A|-----------------------------------------------------------------------------------------------------------------
E|-----------------------------------------------------------------------------------------------------------------

E|--0-----2-----3-----2--0--------2-----3-----2-----0-----2-----3-----2--0--------2-----3-----2-----
B|-----0-----0-----0--------1--1-----1-----1-----1-----1-----1-----1--------3--3-----3-----3-----3--
G|--------------------------------------------------------------------------------------------------
D|--------------------------------------------------------------------------------------------------
A|--------------------------------------------------------------------------------------------------
E|--------------------------------------------------------------------------------------------------

E|--0-----2-----3-----2--0--------------------------------------------3-----
B|-----3-----3-----3--------3--1--0--------------------------5--3--5--------
G|-----------------------------------2--0-----------4--5--7-----------------
D|-----------------------------------------4--5--7--------------------------
A|--------------------------------------------------------------------------
E|--------------------------------------------------------------------------

    Dm       Dm             Am       Am             Dm       Dm             Am       Am
E|--1-----x--1--------------0-----x--0--------------1-----x--1--------------0-----x--0--
B|--3-----x--3--------------1-----x--1--------------3-----x--3--------------1-----x--1--
G|--2-----x--2--------------2-----x--2--------------2-----x--2--------------2-----x--2--
D|--0-----x--0--------------2-----x--2--------------0-----x--0--------------2-----x--2--
A|--------x-----------------0-----x--0--------------------x-----------------0-----x--0--
E|--------x-----------------------x-----------------------x-----------------------x-----

                Dm       Dm             C        C              Gsus2    Gsus2          Gsus2    Gsus2
E|--------------1-----x--1--------------0-----x--0--------------3-----x--3--------------3-----3--3--3--3--3--
B|--------------3-----x--3--------------1-----x--1--------------3-----x--3--------------3-----3--3--3--3--3--
G|--------------2-----x--2--------------0-----x--0--------------2-----x--2--------------2-----2--2--2--2--2--
D|--------------0-----x--0--------------2-----x--2--------------0-----x--0--------------0-----0--0--0--0--0--
A|--------------------x-----------------3-----x--3--------------0-----x--0--------------0-----0--0--0--0--0--
E|--------------------x-----------------------x-----------------3-----x--3--------------3-----3--3--3--3--3--

Strumming: Down, Down, Up, Up, Down, Up (Except last chord).
Verse: Dm, Am, Dm, Am, Dm, C, Gsus2, Gsus2 (x1, wait a bit and then Down x5).

No capo chords: Dm --> Em, Am --> Bm, C --> D, Gsus2 --> Asus2.

Lyrics:
TBD
tabs and chords, guitar tabs, music transcription, music technology, deep learning, music information retrieval, transcribe into tabs & chords, chordify, music renditions, songsterr, reverbnation, tabulature, bollywood chords, ultimate guitar, yousician, guitar lessons, acoustic guitar, electric guitar, guitar tuner, 911 tabs