Guitar Tabs for First Song

(/) Slide Up  (\) Slide Down  (h) Hammer On  (p) Pull Off  (b) Bend (r) Release (v) Vibrato (x) Muted

Tabs for Song : 

Song lyrics her

E|-----------------------------------
B|-----------------------------------
G|-----5---7b9------9b7--5---7/9-----
D|--7--------------------------------
A|-----------------------------------
E|-----------------------------------

E|---------------------------
B|--------------------------
G|-----5---7b9-----5--------
D|--7-----------------7-----
A|--------------------------
E|--------------------------

E|-----------------------------------
B|--------------------8---8b10-8-----
G|--5---7b9--5---7/9--------------9--
D|-----------------------------------
A|-----------------------------------
E|-----------------------------------

E|-----------8-----------------------8--------------------8--------------------------
B|------8b10----10b8-----8------8b10----10b8-----8---8/10----10\8--------------------
G|--9-----------------9-----9-----------------9--------------------9--7-----7--9-----
D|-----------------------------------------------------------------------10----------
A|-----------------------------------------------------------------------------------
E|-----------------------------------------------------------------------------------

E|-----------------10b12-10p8--------8--10/12----15-------
B|--------------8---------------8h10----------------------
G|--7---5/7--9--------------------------------------------
D|--------------------------------------------------------
A|--------------------------------------------------------
E|--------------------------------------------------------

E|--15b17-12----12-------------------------------------------
B|-----------15----15-13----13-------------------------------
G|-----------------------14----14-12----12-------------------
D|-----------------------------------14----14-12----12/14----
A|-----------------------------------------------15----------
E|-----------------------------------------------------------

E|--------------------------------------------------------15/17-20-17-20b22----
B|--------------------15-13----13-15b17----17b15-13h15p13----------------------
G|--12b14-------12/14-------14-------------------------------------------------
D|--------12h14----------------------------------------------------------------
A|-----------------------------------------------------------------------------
E|-----------------------------------------------------------------------------

E|-----17-------------------------------------------------------------------------mb
B|--------20-17-17\15-------------------------------------------------------------
G|--------------------17-14-------------------------------------------------------
D|--------------------------17-14-14\12-10-12b14----------------------------------
A|--------------------------------------------------12----------------------------
E|--------------------------------------------------------------------------------

Song lyrics here
E|--
B|--
G|--
D|--
A|--
E|--

Paste any tab in acousterr's tab maker and we'll play it !!!
Now supports capo and sound effects for vibrato/pull-off/hammer/bends/mutes etc !!! Checkout help section
tabs and chords, guitar tabs, music transcription, music technology, deep learning, music information retrieval, transcribe into tabs & chords, chordify, music renditions, songsterr, reverbnation, tabulature, bollywood chords, ultimate guitar, yousician, guitar lessons, acoustic guitar, electric guitar, guitar tuner, 911 tabs