Guitar Tabs for First Class

Mere hothon se dhuaandhaar nikalti hai jo boli
E|-----------------------------------------------------
B|--------------------------------------------4--------
G|--------4--6--6--6--6--6--6--6--6--6--6--6-----4-----
D|--6--7-----------------------------------------------
A|-----------------------------------------------------
E|-----------------------------------------------------

Jaise jaise bandook ki goli
E|--------------------------------------------
B|--4--------4--------------------------------
G|-----4--------4-----------------4-----------
D|-----------------7--7--7-----7-----7--6-----
A|--------------------------------------------
E|--------------------------------------------

Mere tevar mein hai tehzeeb ki rangeen rangoli
E|-----------------------------------------------------
B|-----5--4-----------------------------------4--------
G|-----------6--6--6--6--6--6--6--6--6--6--6-----4-----
D|--6--------------------------------------------------
A|-----------------------------------------------------
E|-----------------------------------------------------

Jaise jaise ho Eid me Holi
E|--------------------------------------------
B|--4--------4--------------------------------
G|-----4--------4-----------------4-----------
D|-----------------7--7--7-----7-----7--6-----
A|--------------------------------------------
E|--------------------------------------------

Mere jeevan ki dasha
Thoda raston ka nasha
E|--------------------------------------------------------------
B|--9--7--9-----------------------7--5--7-----------------4-----
G|--------------6-----6--8--9-----------------4-----4--6--------
D|--------------------------------------------------------------
A|--------------------------------------------------------------
E|--------------------------------------------------------------

Thodi manzil ki pyaas hai
E|--------------------------------------------------------
B|--5--5--5------7/9--7--5-----2---2/4-----4--4--4--4-----
G|--------------------------------------------------------
D|--------------------------------------------------------
A|--------------------------------------------------------
E|--------------------------------------------------------

Baaki sab first class hai
E|-----------------------------------------------------------------
B|-----------------------4-----5--------------4-----4--------------
G|--4--4--4--4--6-----6-----------6-----6--6-----6--------6--4-----
D|-----------------------------------------------------------------
A|-----------------------------------------------------------------
E|-----------------------------------------------------------------

Baaki sab first class hai
E|-----------------------------------------------------------------
B|-----------------------4-----5--------------4-----4--------------
G|--4--4--4--4--6-----6-----------6-----6--6-----6--------6--4-----
D|-----------------------------------------------------------------
A|-----------------------------------------------------------------
E|-----------------------------------------------------------------

Baaki sab first class hai
E|-----------------------------------------------------------------
B|-----------------------4-----5--------------4-----7-----4--------
G|--4--4--4--4--6-----6-----------6-----6--6-----6-----------4-----
D|-----------------------------------------------------------------
A|-----------------------------------------------------------------
E|-----------------------------------------------------------------


E|--------------------------------------
B|--------------7-----5--4-----5--------
G|--4--4--4--4--------------------6-----
D|--------------------------------------
A|--------------------------------------
E|--------------------------------------

music
E|--------------------------------------------------------------
B|--------------4--------4-----------------------4--------4-----
G|--6--6--6--6-----6--------6--4-----6--6--6--6-----6--------6--
D|--------------------------------------------------------------
A|--------------------------------------------------------------
E|--------------------------------------------------------------
tabs and chords, guitar tabs, music transcription, music technology, deep learning, music information retrieval, transcribe into tabs & chords, chordify, music renditions, songsterr, reverbnation, tabulature, bollywood chords, ultimate guitar, yousician, guitar lessons, acoustic guitar, electric guitar, guitar tuner, 911 tabs