Guitar Tabs for Fireworks-katy Perry (kelly Valleau)

(/) Slide Up  (\) Slide Down  (h) Hammer On  (p) Pull Off  (b) Bend (r) Release (v) Vibrato (x) Muted

Firworks- Katy Perry (Kelly Valleau) : Capo 1


Intro:
E|-----------------------------------------------------------------------------------------------
B|-----------------------------------------------------------------------------------------------
G|--0-----0-----0-----0-----2-----2-----2-----2-----------------------------0-----0-----0-----0--
D|--0-----0-----0-----0-----2-----2-----2-----2-----2-----2-----2-----2-----2-----2-----2-----2--
A|-----------------------------0-----0-----0-----0--2-----2-----2-----2--------3-----3-----3-----
E|-----3-----3-----3-----3-----------------------------0-----0-----0-----0-----------------------
Verse 1:
E|---------------------
B|-----0--3---3p0--0--
G|-----2--------------
D|-----0--------------
A|--------------------
E|--3-----------------

E|----------------------------------------------------------------------------------------------------------------
B|-------------------------------------------------0--0-----0--3---3p0--0-----------------------------------------
G|-----0--2---2p0--0--------2---2p0--0-----0--2--2----------2-----------------0--2---2p0--0--------2---2p0--0-----
D|----------------------------------------------------------0-----------------------------------------------------
A|--0--------------------2--------------3----------------------------------0--------------------2--------------3--
E|--------------------0----------------------------------3-----------------------------------0--------------------

E|--------------------0--3--3-----------------0--0--3--3-----3-----3--3-----------0-----------0--------
B|-----------0--0-----3--------3--3-----3--3--------------------3--------3--3--3-----3--3--0-----3--3--
G|--0--2--2-----------0-----------------0--------------------------------------------------------------
D|--------------------0-----------------0--------------------------------------------------------------
A|-----------------------------------3--------------------------------------------3--------------------
E|-----------------3--------------------------------------3--------------------------------------------

E|-----------------------------------------------------------------------------------------------------------------
B|-----0--3---3p0--0-----------------------------------------------------0--------------1-----------0--3-----------
G|-----2-----------------0--2---2p0--0--------2---2p0--0-----0---2p0--0--------0-----2-----------0--------------0--
D|-----0-----------------------------------------------------------------------0-----------2--2--------------3-----
A|--------------------0--------------------2--------------3-----------------------0--------0-----------------------
E|--3-----------------------------------0-----------------------------------3-----------------------------0--------

E|-----0-----------2--3--------------5-----------3--5--7--------3--2--0--
B|--1-----------------------------3-----------0--------------0-----------
G|--------------0--------------2-----------5-----------------------------
D|-----------0--------------0--------------------------------------------
A|--------3-----------------------------0--------------------------------
E|-----------------------3--------------------------------0--------------
Chorus:
E|--------------10-8--7--5--------3--7-----------10-8--7--5--5--------------3--7-----------10-8--7--5--------5-----5--
B|--------------------------------------------0-----------------------0-----------------------------------------------
G|-----------------------------0-----------5-----------------------------0--------------0-----------------0-----0-----
D|--------------------------0--------------------------------------4-----------------0-----------------0--------------
A|--------------------------------------0-----------------------5-----------------------------------------------------
E|---0h8---8\7--8--------3-----------------------------------0--------------------8--------8--------3--------3-----3--

E|-----------10-8--7--5--5-----------5--3--------------------10-8--7--5--5--------3--7-----------10-8--7--5--5--------
B|-----------------------------0-----0--------------------------------------------------------------------------------
G|-----7--7--------------------0-----------------------------------------------0--------------0-----------------------
D|--------------------------3-----------------------------------------------0--------------5-----------------------4--
A|--0-----------------------------0--------3--------------------------------------------0-----------------------5-----
E|-----------------------0--------------------------------0--------------3-----------------------------------0--------

E|--------3--7-----------10-8--7--5--------5-----5-----------10-8--7--5--5--------5--5--3------------------------
B|--0------------------------------------------------------------------------------------------------------------
G|-----0--------------0-----------------0-----0--------7--7--------------------0-----------0-----0-----0-----0---
D|-----------------0-----------------0--------------------------------------0--------------2-----2-----2-----2---
A|--------------------------------------------------0-----------------------------------------3-----3-----3------
E|--------------8-----------------3--------3-----3-----------------------3---------------------------------------
Verse 2:

Chorus 2:

Bridge:
E|--3-----2--------------3--3--3--3--3--3--3-----2-----------3-----3------3p0---5/7-----5--3-----3--3--3--3---3p0--
B|--3-----3--3-----------3--3--3--3--3--3--3-----3-----3-----3-----3------3p0--------------0-----3--3--3--3---3p0--
G|--0--0--0--0--0--------0--0--0--0--0--0--0-----0--0--0--------------0--------------0-----0-----0--0--0--0--------
D|-----------2--------2--------------------2--2--2-----2-----------------------------0-----0-----0--0--0--0--------
A|-----------------0-----------------------3--------------------0--------------------------0-----0--0--0--0--------
E|--------------------------------------------------------3---------------------5/---------3-----3--3--3--3--------

E|---5h7--5--2-----
B|-----------3-----
G|---5h---5--0-----
D|-----------0--0--
A|---0h---0-----0--
E|-----------------
Chorus 3:

Outro:
E|--7--------5--------3--7--7--7--7--7--7--7--5--3--------7--7--7--7--7--7--7--------5--------3--7--7--7--7--7--7--7--
B|--------------------3--8--8--8--8--8--8--8--0--0--------8--8--8--8--8--8--8--------------------8--8--8--8--8--8--8--
G|--------0--------0-----0--0--0--0--0--0--0--7--4--------0--0--0--0--0--0--0-----0--------0-----0--0--0--0--0--0--0--
D|-----0--------0--------------------------------------------------------------0--------0-----------------------------
A|--------------------------------------------------------------------------------------------------------------------
E|--3--------3--------3------------------------------3/8-----------------------------3--------3-----------------------

E|--5---3p---------------------
B|--0---1p0---------1p0--------
G|--7---0p----2p0---------2p0--
D|------0p---------------------
A|------3p---------------------
E|-----------------------------

tabs and chords, guitar tabs, music contests, music covers, songsterr, reverbnation, renditions, tabulature, bollywood chords, ultimate guitar, yousician, guitar lessons, torrins, fender, gibson, acoustic guitar, electric guitar, youtube covers, gootar, guitar tuner, A-Z tabs, 911 tabs