Guitar Tabs for Finger Stretch And Slides

(/) Slide Up  (\) Slide Down  (h) Hammer On  (p) Pull Off  (b) Bend (r) Release (v) Vibrato (x) Muted

Tabs for Song : 

Song lyrics here
E|-----------------------------------------------------------------
B|-----------------------------------------------------------------
G|--------8--9---8h-9p8-----8-----------8--9---8h-9p8-----8--------
D|--6--11----------------11----11-6--11----------------11----11-6--
A|-----------------------------------------------------------------
E|-----------------------------------------------------------------

Song lyrics here
E|-----------------------------------------------------------------
B|-----------------------------------------------------------------
G|------6/8--9---8h-9p-8\6--8--6------6/8--9---8h-9p-8\6--8--6-----
D|--6-----------------------------6-----------------------------6--
A|-----------------------------------------------------------------
E|-----------------------------------------------------------------

Paste any tab in acousterr's tab maker and we'll play it !!!
Now supports capo and sound effects for vibrato/pull-off/hammer/bends/mutes etc !!! Checkout help section
tabs and chords, guitar tabs, music transcription, music technology, deep learning, music information retrieval, transcribe into tabs & chords, chordify, music renditions, songsterr, reverbnation, tabulature, bollywood chords, ultimate guitar, yousician, guitar lessons, acoustic guitar, electric guitar, guitar tuner, 911 tabs