Guitar Tabs for Final Countdown

(/) Slide Up  (\) Slide Down  (h) Hammer On  (p) Pull Off  (b) Bend (r) Release (v) Vibrato (x) Muted

Tabs for Song : Final Countdown

Song lyrics here 
E|-----------------------------------------------------------------------------------
B|-----------------------------------------------------------------------------------
G|-----------4--------------------------------------4--------------------------------
D|-----------------------------4-----------------------1---4p2--4--2--1--4--2--------
A|---2p0--2---------3p2--3--2---------3p2-----3--------------------------------------
E|-----------------------------------------------------------------------------------

E|-----------------------------------------------------------------------------------
B|-----------------------------------------------------------------------------------
G|-----------4--------------------------------------4--------------------------------
D|-----------------------------4-----------------------1---4p2--4--2--1--4--2--------
A|---2p0--2---------3p2--3--2---------3p2-----3--------------------------------------
E|-----------------------------------------------------------------------------------

E|-----------------------------------------------------------
B|-----------------------------------------------------------
G|-----------------------------4-----------------------------
D|--1--2--4--2--4-----4--2--1--------------------------------
A|-----------------2--------------3--2---------2p-3p-2p0--2--
E|-----------------------------------------------------------
tabs and chords, guitar tabs, music transcription, music technology, deep learning, music information retrieval, transcribe into tabs & chords, chordify, music renditions, songsterr, reverbnation, tabulature, bollywood chords, ultimate guitar, yousician, guitar lessons, acoustic guitar, electric guitar, guitar tuner, 911 tabs