Bass Tabs for Fight Song

G|--------------------------------------------------------------------------------------------------------
D|--------------------------------0--0--0--0--0--0--0--0--------------------------------------------------
A|--------------------------------------------------------------------------------3--3--3--3--3--3--3--3--
E|--------3--3--3--3--3--3--3--3--------------------------0--0--0--0--0--0--0--0--------------------------

G|--------------------------------------------------------------------------------------------------------
D|--------------0--0--0--0--------------------------------------------------------------------------------
A|--------------------------------------------------------------------------------------------------------
E|--3--3--3--3--------------------------------------------------------------------------------------------

G|--------------------------------------------------------------------------------------------------------
D|--------------------------------------------------------------------------0--0--0--0--0--0--0--0--------
A|--------------------------3--3--3--3--3--3--3--3--------------------------------------------------------
E|--0--0--0--0--0--0--0--0--------------------------3--3--3--3--3--3--3--3--------------------------------

G|--------------------------------------------------------------------------------------------------------
D|--------------------------------------------------------------------------------------------------------
A|--------------3--3--3--3--------------0--0--0--0--------------3--3--3--3--------------------------------
E|--3--3--3--3--------------0--0--0--0--------------3--3--3--3--------------------------------------------

G|--------------------------------------------------------------------------------------------------------
D|--------------------------------0--0--0--0--0--0--0--0--------------------------------------------------
A|--------------------------------------------------------------------------------3--3--3--3--3--3--3--3--
E|--------3--3--3--3--3--3--3--3--------------------------0--0--0--0--0--0--0--0--------------------------

G|--------------------------------------------------------------------------------------------------------
D|--------------------------------------------------------------------------------------------------------
A|--------0--0-----------------------------3--3--3--3--3--3--3--3-----------------------------------------
E|--3--3-----------3--3--3--3--3--3--3--3--------------------------3--3--3--3--3--3--3--3-----------------

G|--------------------------------------------------------------------------------------------------------
D|--0--0--0--0--0--0--0--0--0--0--0--0--0--0--0--0--0--0--0--0--0--0--0-----------------------------------
A|--------------------------------------------------------------------------------------------------------
E|--------------------------------------------------------------------------------------------------------

G|--------------------------------------------------------------------------------------------------------
D|--------------------------------0--0--0--0--0--0--0--0--------------------------------------------------
A|--------------------------------------------------------------------------------3--3--3--3--3--3--3--3--
E|--------3--3--3--3--3--3--3--3--------------------------0--0--0--0--0--0--0--0--------------------------

G|--------------------------------------------------------------------------------------------------------
D|-----------0--------0-----------------------------------------------------------------------------------
A|--------------------------------------------------------------------------------------------------------
E|--3-----------------------------3-----------------------------------------------------------------------





tabs and chords, guitar tabs, music transcription, music technology, deep learning, music information retrieval, transcribe into tabs & chords, chordify, music renditions, songsterr, reverbnation, tabulature, bollywood chords, ultimate guitar, yousician, guitar lessons, acoustic guitar, electric guitar, guitar tuner, 911 tabs