Guitar Tabs for Feels Like We're Dying Bass

(/) Slide Up  (\) Slide Down  (h) Hammer On  (p) Pull Off  (b) Bend (r) Release (v) Vibrato (x) Muted

Tabs for Song : 

Song lyrics here
E|--------------------------------------------------------------------------------------------------------
B|--------------------------------------------------------------------------------------------------------
G|--------------------------------------------------------------------------------------------------------
D|--------------------------------------------------------------------------------------------------------
A|--------------------------------------------------------------------------------------------------------
E|--------------------------------------------------------------------------------------------------------

E|--------------------------------------------------------------------------------------------------------
B|--------------------------------------------------------------------------------------------------------
G|--------------------------------------------------------------------------------------------------------
D|--------------------------8-----------------------------------------------------------------------------
A|--9-----------9-----------------------------------------------------------------------------------------
E|--------------------------------------7-----------7---------7\2-----2--2--2-----2-----2--2--2-----6--7--

E|-----------------------------------
B|-----------------------------------
G|-----------------------------------
D|-----------------------------------
A|-----------------------------------
E|--7--7--7-----7-----7--7--7-----9--

E|-----------------------------------------------------------
B|-----------------------------------------------------------
G|-----------------------------------------------------------
D|-----------------------------------------------------------
A|--------------------------------2-----2--2-----1-----1--1--
E|--2-----2--2-----2-----2--2--------------------------------

E|-----------------------------------------------------------------------------------------------
B|-----------------------------------------------------------------------------------------------
G|-----------------------------------------------------------------------------------------------
D|-----------------------------------------------------8-----------------------------------------
A|--9--9-----9--9--9--9-----9--9--9-----9--9--9--9-----------------------------------------------
E|--------------------------------------------------------7--7-----7-----7-----7--7-----7-----7--

E|-----------------------------------------------------------------------------------------------------------
B|-----------------------------------------------------------------------------------------------------------
G|-----------------------------------------------------------------------------------------------------------
D|-----------------------------------------------------------------------------------------------------------
A|-----------------------------------------------------------------------------------------------------------
E|---7\2--2-----2--2--2--2-----2--2-----2--2--4--4--6--6--7--7-----7-----7-----7--7-----7-----7--------------

Song lyrics here
E|--
B|--
G|--
D|--
A|--
E|--

Paste any tab in acousterr's tab maker and we'll play it !!!
Now supports capo and sound effects for vibrato/pull-off/hammer/bends/mutes etc !!! Checkout help section
tabs and chords, guitar tabs, music transcription, music technology, deep learning, music information retrieval, transcribe into tabs & chords, chordify, music renditions, songsterr, reverbnation, tabulature, bollywood chords, ultimate guitar, yousician, guitar lessons, acoustic guitar, electric guitar, guitar tuner, 911 tabs