Guitar Tabs for Far Away

(/) Slide Up  (\) Slide Down  (h) Hammer On  (p) Pull Off  (b) Bend (r) Release (v) Vibrato (x) Muted

Tabs for Song : 
BPM : 225

Song lyrics here 
E|--14-13-14-------------------14-13-14----------------14-13-14----------------------------------------------
B|-----------15-13-12-------------------15-13-12----------------15-13-12-------------------------------------
G|--------------------14-12-11-------------------12-11-------------------12-11-12-10-------------------------
D|-----------------------------------------------------------------------------------12-10-------------------
A|-----------------------------------------------------------------------------------------12-10-9-----------
E|--------------------------------------------------------------------------------------------------12-10-9--




E|--14-13-14-------------------------------------------------------------------------14-17-19-18-16-19-18-16-
B|-----------15----13-12----15-13-12-------15-13-12-------15-13-12-15-13----15-13-12-------------------------
G|--------------13-------13-------------13-------------13----------------12----------------------------------
D|-----------------------------------13-------------13-------------------------------------------------------
A|-----------------------------------------------------------------------------------------------------------
E|-----------------------------------------------------------------------------------------------------------



E|-----------------------------------------------------------------------------------------------------------
B|--18-16-15-------------------------------------------------------------------------------------------------
G|-----------17-15-14-------------------------------------------------------------------------------14-14-14-
D|--------------------17-15-------------------------------------------------14-14-14-14-16-16-16-16----------
A|--------------------------17-15-------------14-16-16-16-16-16-14-14-14-14----------------------------------
E|--------------------------------17-15-14-16----------------------------------------------------------------

E|-----------------14-14-14-14-12-12-12-12-15-15-15-15----------------------15-14-13-12-13-14-15-14-13-12----
B|-----16-16-16-16-------------------------------------------13-14-13-14-15-------------------------------12-
G|--14-------------------------------------------------14-13-------------------------------------------------
D|-----------------------------------------------------------------------------------------------------------
A|-----------------------------------------------------------------------------------------------------------
E|-----------------------------------------------------------------------------------------------------------

E|-----------------------------------------------------------------6--8--9--9--9-----------------------------
B|--10-9--------------------------------------------------6--9--10----------------7--7--7--------------------
G|--------10-9--8-----------------------------------7--8-----------------------------------9--9--9--7--------
D|-----------------11-9--------------------------6-----------------------------------------------------9-----
A|-----------------------10-8--7--------------8-----------------------------------------------------------7--
E|--------------------------------8--6--8--6-----------------------------------------------------------------

E|-----------------7--9-----------------------------------9--11-11-13-13-16-16-16-17-17-17-22-22-22-22-21-21-
B|--------------9--------7--------------------------9--7-----------------------------------------------------
G|-----------7--------------9--------------------7-----------------------------------------------------------
D|--------9--------------------7--------------9--------------------------------------------------------------
A|-----7--------------------------9--------7-----------------------------------------------------------------
E|--9--------------------------------7--9--------------------------------------------------------------------

E|--21-20-20-20-19-19-19-18-18-18-17-17-17-16-16-16-15-15-15-14-14-14-13-13-13-12-12-12----12-12-12-12----12-
B|-----------------------------------------------------------------------------------------------------------
G|--------------------------------------------------------------------------------------13-------------12----
D|-----------------------------------------------------------------------------------------------------------
A|-----------------------------------------------------------------------------------------------------------
E|-----------------------------------------------------------------------------------------------------------

E|--12-12-12----12-12-12-12----12-12-12-12----12-12-12-12----12-12-12-12----12-12-12-12----12-12-12-12-------
B|-----------------------------------------------------------------------------------------------------------
G|-----------11-------------10-------------14-------------13-------------12-------------11-------------10-9--
D|-----------------------------------------------------------------------------------------------------------
A|-----------------------------------------------------------------------------------------------------------
E|-----------------------------------------------------------------------------------------------------------

E|-----------------------------------------------------------------------------------------------------------
B|-----------------------------------------------------------------------------------------------------------
G|--8--6--6--6--5--3--3--3--3--1--1--0--0--0--0--0--------------------------------------11-12-13-14-15-16-17-
D|-----------------------------------------------------------------------------15-15-15----------------------
A|--------------------------------------------------------------------12-12-12-------------------------------
E|--------------------------------------------------12-12-12-16-16-16----------------------------------------

E|-----------13-15-12----------------12-15----15-12----------------------------------------------------6--4--
B|--16-15-13----------14-13----13-14-------15-------12----------------------------------------------6--------
G|--------------------------13-------------------------12-10----6--6-----6-----6-----6-----------6-----------
D|-----------------------------------------------------------8-----------------------------6--8--------------
A|--------------------------------------------------------------------8-----8-----8-----8--------------------
E|-----------------------------------------------------------------------------------------------------------

Use manual mode to free up cursor. Paste any tab in acousterr tab maker and we'll play it !!!

Piano Tabs for Far Away






2|-----------------------------------------------------b--------------------------------------------f--------
2|--------------------------------------------------------------------------------------------------a--------
3|--c--------------------------c-----------------------D#-------------------------------------------c--------
3|--D#-------------------------D#----------------------C#----------------------------------------------------
3|--f--------------------------f-----------------------------------------------------------------------------
4|-----------------------------------------------------------------------------------------------------------
5|-----------------------------------------------------------------------------------------------------------



2|--b--------------------------------------------------------------------------------------------------------
3|--c-----c--------d-----f-----a-----f--------------g-----F#-------------b-----------e-----g--a--------------
3|--------d--------e-----g-----b-----e--------------f-----G#-------------a-----------g-----------------------
3|-----------------------------------------------------------------------------------A#----------------------
4|-----------------------------------------------------------------------------------------------c--e--f--a--
5|-----------------------------------------------------------------------------------------------------------



2|--
3|--
4|--
5|--



2|--
3|--
4|--
5|--



2|--
3|--
4|--
5|--



2|--
3|--
4|--
5|--



2|--
3|--
4|--
5|--



2|--
3|--
4|--
5|--



2|--
3|--
4|--
5|--



2|--
3|--
4|--
5|--

tabs and chords, guitar tabs, music transcription, music technology, deep learning, music information retrieval, transcribe into tabs & chords, chordify, music renditions, songsterr, reverbnation, tabulature, bollywood chords, ultimate guitar, yousician, guitar lessons, acoustic guitar, electric guitar, guitar tuner, 911 tabs