Guitar Tabs for Fantasma Da Ópera (intro)

(/) Slide Up  (\) Slide Down  (h) Hammer On  (p) Pull Off  (b) Bend (r) Release (v) Vibrato

Tabs for Song : 

Song lyrics here
E|-----0-----------------------2--------------------------0-----------0--3--7-----5--5--------
B|--0-----0--3-----1--1--------3-----------3-----0--------0--------0--------------------------
G|-----------------------------2--------2-----2-----------0-----------------------------------
D|-----------------------------0--------------------------2-----------------------------------
A|--------------------------------------------------------2-----------------------------------
E|--------------------------------------------------------------------------------------------

E|--5--10-5--7---------7/12-------12-10-8--7--5--3--2-----0--
B|-----------------------------------------------------------
G|-----------------------------------------------------------
D|-----------------------------------------------------------
A|-----------------------------------------------------------
E|-----------------------------------------------------------

Song lyrics here
E|--
B|--
G|--
D|--
A|--
E|--

Add more lines by placing cursor below and adding notes
tabs and chords, guitar tabs, music transcription, music technology, deep learning, music information retrieval, transcribe into tabs & chords, chordify, music renditions, songsterr, reverbnation, tabulature, bollywood chords, ultimate guitar, yousician, guitar lessons, acoustic guitar, electric guitar, guitar tuner, 911 tabs