Guitar Tabs for Falak tak chal saath mere

Tabs for Song :Falak tak chal saath mere

Falak tak chal saath mere
E|--------------------------------
B|-----------3--------------1-----
G|--2--0--2-----2--0--2--2--------
D|--------------------------------
A|--------------------------------
E|--------------------------------

Falak tak chal saath chal
E|--------------------------
B|-----------3--------------
G|--2--0--2-----2--0--0-----
D|--------------------------
A|--------------------------
E|--------------------------

Yeh badal ki chaadar
E|--------1-----1--3--0-----------
B|--1--3-----------------3--1-----
G|--------------------------------
D|--------------------------------
A|--------------------------------
E|--------------------------------

Yeh taaro ke anchal
E|--------1-----1--3--0-----------
B|--1--3-----------------3--1-----
G|--------------------------------
D|--------------------------------
A|--------------------------------
E|--------------------------------

Mein chup jaye hum, pal do pal
E|-----------------------------------------
B|--1--1--3--3-----------1-----------------
G|--------------3--3--3-----2-----2--0-----
D|-----------------------------3-----------
A|-----------------------------------------
E|-----------------------------------------

Hooo..oo..
E|--------------
B|--------------
G|--3--2--0-----
D|--------------
A|--------------
E|--------------

Falak tak chal saath mere
E|--------------------------------
B|-----------3--------------1-----
G|--2--0--2-----2--0--2--2--------
D|--------------------------------
A|--------------------------------
E|--------------------------------

Falak tak chal saath chal 
E|--------------------------
B|-----------3--------------
G|--2--0--2-----2--0--0-----
D|--------------------------
A|--------------------------
E|--------------------------

Falak tak chal saath mere
E|--------------------------------
B|-----------3--------------1-----
G|--2--0--2-----2--0--2--2--------
D|--------------------------------
A|--------------------------------
E|--------------------------------

Falak tak chal saath chal 
E|--------------------------
B|-----------3--------------
G|--2--0--2-----2--0--0-----
D|--------------------------
A|--------------------------
E|--------------------------

Dheko kahan aa gaye hum sanam saath chalte
E|-----------------------------------------------------
B|-----------------------------------------------------
G|-----------------------------2--0--------------------
D|-----------0-----0--3--0--3--------3--2--3--2--0-----
A|--3--0--3-----3--------------------------------------
E|-----------------------------------------------------

Jahan din ki bahon mein rathon ke saaye hai dhalte
E|--------------------------------------------------
B|--------------------------------------------------
G|-----------------------------2--0-----------0-----
D|-----------0-----0--3--0--3--------3--2--2--------
A|--3--0--3-----3-----------------------------------
E|--------------------------------------------------

Chal woh chowbare dhonde, 
E|--------------------------------------
B|-----------------1--------------------
G|--2--0--2--0--2-----2--2--0-----------
D|-----------------------------3--2-----
A|--------------------------------------
E|--------------------------------------

gin mein chahat ki boonde
E|--------------------------------------
B|-----------------1--------------------
G|--2--0--2--0--2-----2--2--0-----------
D|-----------------------------3--2-----
A|--------------------------------------
E|--------------------------------------

Sach kar de sapno ko sabhi
E|--------------------------------------------
B|-----------------1--------------------------
G|--2--0--2--0--2-----2--2--------2--2--0-----
D|--------------------------3--3--------------
A|--------------------------------------------
E|--------------------------------------------

Hooo..Aankho ko neeche neeche,
E|-----------------------------------------
B|--------------------1--------------------
G|--2--2--0--2--0--2-----2--2--0-----------
D|--------------------------------3--2-----
A|-----------------------------------------
E|-----------------------------------------

mein tere peeche peeche
E|-----------------------------------------
B|--------------------1--------------------
G|--2--2--0--2--0--2-----2--2--0-----------
D|--------------------------------3--2-----
A|-----------------------------------------
E|-----------------------------------------

Chal du jo keh de tu abhi
E|--------------------------------------------
B|-----------------1--------------------------
G|--2--0--2--0--2-----2--2--------2--2--0-----
D|--------------------------3--3--------------
A|--------------------------------------------
E|--------------------------------------------

Bahron ke chaat ho,
E|--------1--1--3--0-----------
B|--1--3--------------3--1-----
G|-----------------------------
D|-----------------------------
A|-----------------------------
E|-----------------------------

dua oon ka haat ho
E|--------1--1--3--0-----------
B|--1--3--------------3--1-----
G|-----------------------------
D|-----------------------------
A|-----------------------------
E|-----------------------------

Padthe rahe yeh gazal
E|-----------------------------------------
B|--1--1--3--3-----------1-----------------
G|--------------3--3--3-----2-----2--0-----
D|-----------------------------3-----------
A|-----------------------------------------
E|-----------------------------------------

Hooo..oo..
E|--------------
B|--------------
G|--3--2--0-----
D|--------------
A|--------------
E|--------------

Falak tak chal saath mere
E|--------------------------------
B|-----------3--------------1-----
G|--2--0--2-----2--0--2--2--------
D|--------------------------------
A|--------------------------------
E|--------------------------------

Falak tak chal saath chal
E|--------------------------
B|-----------3--------------
G|--2--0--2-----2--0--0-----
D|--------------------------
A|--------------------------
E|--------------------------
tabs and chords, guitar tabs, music contests, music covers, songsterr, reverbnation, renditions, tabulature, bollywood chords, ultimate guitar, yousician, guitar lessons, torrins, fender, gibson, acoustic guitar, electric guitar, youtube covers, gootar, guitar tuner, A-Z tabs, 911 tabs