Fake Shinedown - Guitar Tabs

(/) Slide Up  (\) Slide Down  (h) Hammer On  (p) Pull Off  (b) Bend (r) Release (v) Vibrato (x) Muted

Tabs for Song : 
 
E:-----------------------------|-----------|
B:---3--3--3---3--3------------|-----------|
G:---5--5--5---5--4------------|-----------|
D:--------------------5--3--0--|--5--3--0--|  4x
A:--------------------5--3--0--|--5--3--0--|
D:--------------------5--3--0--|--5--3--0--|
 
PRE-CHORUS
 
E:---------------------------I
B:---------------------------I
G:---------------------------I
D:---0--0---0--0---0--0---5--I  3x
A:---0--0---0--0---0--0---5--I
D:---0--0---0--0---0--0---5--I
 
E:------------------------------------------I
B:---------------------------------------3--I
G:------------------------0--2--0--2--4--5--I
D:---0--2--4--2--4--5--4--------------------I
A:------------------------------------------I
D:------------------------------------------I
 
CHORUS
 
E:----------------I
B:----------------I
G:----------------I
D:---12----7---4--I 2x
A:---12----7---4--I
D:---12----7---4--I
 
INTERLUDE
 
E:-----------------------------|-----------|
B:---3--3--3---3--3------------|-----------|
G:---5--5--5---5--4------------|-----------|
D:--------------------5--3--0--|--5--3--0--|  2x
A:--------------------5--3--0--|--5--3--0--|
D:--------------------5--3--0--|--5--3--0--|
 
VERSE 2
 
E:-----------------------------|-----------|
B:---3--3--3---3--3------------|-----------|
G:---5--5--5---5--4------------|-----------|
D:--------------------5--3--0--|--5--3--0--|  4x
A:--------------------5--3--0--|--5--3--0--|
D:--------------------5--3--0--|--5--3--0--|
 
PRE-CHORUS
 
E:---------------------------I
B:---------------------------I
G:---------------------------I
D:---0--0---0--0---0--0---5--I  3x
A:---0--0---0--0---0--0---5--I
D:---0--0---0--0---0--0---5--I
 
E:------------------------------------------I
B:---------------------------------------3--I
G:------------------------0--2--0--2--4--5--I
D:---0--2--4--2--4--5--4--------------------I
A:------------------------------------------I
D:------------------------------------------I
 
CHORUS---
 
E:----------------I
B:----------------I
G:----------------I
D:---12----7---4--I 2x
A:---12----7---4--I
D:---12----7---4--I
 
BRIDGE
 
E:-----------------------------------------------I
B:---7--7--9--9--10--10--12--12--14--14--14--14--I
G:-----------------------------------------------I
D:-----------------------------------------------I
A:-----------------------------------------------I
D:-----------------------------------------------I
 
E:--------------------------------------------I
B:---------------------{-14--14--14--14-}-4x--I
G:------------6--7--6-------------------------I
D:------7-------------------------------------I
A:---5-----5----------------------------------I
D:--------------------------------------------I
 
E:--------------------------I
B:--------------------------I
G:-------0------0--------0--I
D:-----0------0----------0--I
A:---2------3------2--0--2--I
D:--------------------------I
 
PRE-CHORUS
 
E:---------------------------I
B:---------------------------I
G:---------------------------I
D:---0--0---0--0---0--0---5--I  3x
A:---0--0---0--0---0--0---5--I
D:---0--0---0--0---0--0---5--I
 
E:------------------------------------------I
B:---------------------------------------3--I
G:------------------------0--2--0--2--4--5--I
D:---0--2--4--2--4--5--4--------------------I
A:------------------------------------------I
D:------------------------------------------I
 
CHORUS
 
E:----------------I
B:----------------I
G:----------------I
D:---12----7---4--I 2x
A:---12----7---4--I
D:---12----7---4--I
 
OUTRO
 
E:-----------------------------|-----------|
B:---3--3--3---3--3------------|-----------|
G:---5--5--5---5--4------------|-----------|
D:--------------------5--3--0--|--5--3--0--|  4x
A:--------------------5--3--0--|--5--3--0--|
D:--------------------5--3--0--|--5--3--0--|
E|--

Song lyrics here 
E|--
B|--
G|--
D|--
A|--
E|--

Use manual mode to free up cursor. Paste any tab in acousterr tab maker and we'll play it !!!
tabs and chords, guitar tabs, music transcription, music technology, deep learning, music information retrieval, transcribe into tabs & chords, chordify, music renditions, songsterr, reverbnation, tabulature, bollywood chords, ultimate guitar, yousician, guitar lessons, acoustic guitar, electric guitar, guitar tuner, 911 tabs