Bass Tabs for Faith No More - Easy

BASS TAB
Faith No More - Easy

Verse
G|--------------------------------
D|--------------------------------
A|-----------3-----3--1-----1--6--
E|--4-----4-----------------------

Pre-Chorus
G|--------------------------------------------
D|--------------------------------------------
A|-----------3-----3--1-----1--6-----6-----6--
E|--4-----4-----------------------------------

Chorus
G|--------------------------------------------------
D|--------------------------------------------------
A|-----3--1--6-----3--1--6-----3--1--6-----------6--
E|--4-----------4-----------4--------------2--1-----

Tension
G|-----------------------------------------
D|-----------------------------------------
A|--------------6-----------------------6--
E|--2--------1--------1--2-----2--2--1-----

G|-----------------------------------------------------
D|-----------------------------------------------------
A|--------6-----6--6-----2-----------------6--------4--
E|--2--1-----------------------2-----------------------

Last Note -> Ab
tabs and chords, guitar tabs, music transcription, music technology, deep learning, music information retrieval, transcribe into tabs & chords, chordify, music renditions, songsterr, reverbnation, tabulature, bollywood chords, ultimate guitar, yousician, guitar lessons, acoustic guitar, electric guitar, guitar tuner, 911 tabs