Guitar Tabs for Fado Alberto - Part 2

(/) Slide Up  (\) Slide Down  (h) Hammer On  (p) Pull Off  (b) Bend (r) Release (v) Vibrato (x) Muted

Tabs for Song : 

Song lyrics here
E|-----------------------------------------------------------------------------------------
B|-----3-----3-----3-----3-----2-----------2-----------2-----2-----2-----2-----------------
G|-----4-----4-----4-----4-----3-----------3-----------3-----3-----3-----3-----4-----------
D|-----4-----4-----4-----5-----4-----------4--2--3--4--------4-----4-----4--------4--------
A|--2-----------2-----------------1-----------------------4-----------4-----2--------5--2--
E|--------2-----------3-----2--------3--2-----------------------2--------------------------

E|--------------2-----2-----2-----2-----0-----------------------------------------------2--
B|--------------0-----0-----0-----0-----0-----------------------2-----2-----2-----------3--
G|--------------2-----2-----2-----2-----1-----------------------0-----0-----0-----------2--
D|--4--3--2--1-----------------1-----2-----------2--------------2-----2-----2--------0-----
A|-----------------2-----------------------2-----------------0-----4-----0-----2--4--------
E|-----------------------2--------------------3-----0--2--4--------------------------------

E|-----2-----2-----------3--------------------------------------------------------------------
B|-----3-----3-----------3-----3-----3-----------2-----------2-----2-----2-----2-----2-----2--
G|-----2-----2-----------4-----4-----4-----------3-----------3-----3-----3-----3-----3-----3--
D|--4-----0-----2--4--5--------5-----5-----------4-----------4-----4-----2-----4-----4-----4--
A|--------------------------5-----------1-----------1-----------4-----------4-----------4-----
E|--------------------------------3--------3--2--------3--2-----------3-----------2-----------

E|--------------------------
B|-----3-----3--------------
G|-----4-----4--------------
D|-----4-----4--------------
A|--2-----------2--------1--
E|--------2--------2--4-----

Song lyrics here
E|--
B|--
G|--
D|--
A|--
E|--

Paste any tab in acousterr's tab maker and we'll play it !!!
Now supports capo and sound effects for vibrato/pull-off/hammer/bends/mutes etc !!! Checkout help section
tabs and chords, guitar tabs, music transcription, music technology, deep learning, music information retrieval, transcribe into tabs & chords, chordify, music renditions, songsterr, reverbnation, tabulature, bollywood chords, ultimate guitar, yousician, guitar lessons, acoustic guitar, electric guitar, guitar tuner, 911 tabs