Guitar Tabs for Faded

(/) Slide Up  (\) Slide Down  (h) Hammer On  (p) Pull Off  (b) Bend (r) Release (v) Vibrato (x) Muted

Tabs for Song : 

Song lyrics here
E|--2--2--2--6--11-11-11-9--6--6--6--6--1--1--1-----2--2-----2-----2--4--6--2--2-----6--------2--2--2--1-----
B|-----------------------------------------------4--------4-----4-----------------2--------------------------
G|-----------------------------------------------------------------------------------------------------------
D|-----------------------------------------------------------------------------------------------------------
A|-----------------------------------------------------------------------------------------------------------
E|-----------------------------------------------------------------------------------------------------------

Song lyrics here
E|--1--1-----2-----2--2-----2-----2--4--6--2--2--9--6--------2--2--4-----6--6--6--6--2--2--6--11-11-11-6--6--
B|--------4--------------4-----4-----------------------------------------------------------------------------
G|-----------------------------------------------------------------------------------------------------------
D|-----------------------------------------------------------------------------------------------------------
A|-----------------------------------------------------------------------------------------------------------
E|-----------------------------------------------------------------------------------------------------------

E|--6--6--6--6--6--1--1--1--6--6--6--6-----2--4--4--4--6--4--2-----6--6--6--6--------2--2--2--2--4--1--1--1--
B|-----------------------------------------------------------------------------------------------------------
G|-----------------------------------------------------------------------------------------------------------
D|-----------------------------------------------------------------------------------------------------------
A|-----------------------------------------------------------------------------------------------------------
E|-----------------------------------------------------------------------------------------------------------

E|--2--6--6--6--6-----2-----------2--9--9--6--------2--9--9--6-----4--6--6--6--6-----2--2-----7--------9--6--
B|-----------------------4--2--------------------------------------------------------------4-----------------
G|-----------------------------------------------------------------------------------------------------------
D|-----------------------------------------------------------------------------------------------------------
A|-----------------------------------------------------------------------------------------------------------
E|-----------------------------------------------------------------------------------------------------------

E|--9--6--9--6--9--6--4--7--------7--6-----2--2--2--2--6--6--14-13-11-11-11----7--6--6--6--6--6--9--7--6--4--
B|-----------------------------4--------------------------------------------4--------------------------------
G|-----------------------------------------------------------------------------------------------------------
D|-----------------------------------------------------------------------------------------------------------
A|-----------------------------------------------------------------------------------------------------------
E|-----------------------------------------------------------------------------------------------------------

E|--2--1--1--1-----7--6--2--2--2--2--6--6--14-13-11-11-11----7--9--6--6--6--6--9--7--6--4--2--1--1--1--------
B|--------------4-----------------------------------------2-----------------------------------------------4--
G|-----------------------------------------------------------------------------------------------------------
D|-----------------------------------------------------------------------------------------------------------
A|-----------------------------------------------------------------------------------------------------------
E|-----------------------------------------------------------------------------------------------------------

E|--7--6-----2--2--2--2-----2--4--6--2--2-----6-----2--2--2--1-----1--1-----2-----2--2--4--2-----2--4--6--2--
B|-----------------------4-----------------2-----------------------------4--------------------4--------------
G|-----------------------------------------------------------------------------------------------------------
D|-----------------------------------------------------------------------------------------------------------
A|-----------------------------------------------------------------------------------------------------------
E|-----------------------------------------------------------------------------------------------------------

E|--9--6-----2--2--4-----6--6--6--6--------6--6--6--6--------2--9--9--6--2--9--6--2--9--9--4--2--2--6--2--9--
B|-----------------------------------------------------------------------------------------------------------
G|-----------------------------------------------------------------------------------------------------------
D|-----------------------------------------------------------------------------------------------------------
A|-----------------------------------------------------------------------------------------------------------
E|-----------------------------------------------------------------------------------------------------------

E|--9--6--------2--9--9--4--------2--2--4--2--2--9--2--4--2--2--2--2--4--2--2--9--2--4--2--2-----2--2--4--2--
B|-----------------------------------------------------------------------------------------------------------
G|-----------------------------------------------------------------------------------------------------------
D|-----------------------------------------------------------------------------------------------------------
A|-----------------------------------------------------------------------------------------------------------
E|-----------------------------------------------------------------------------------------------------------

E|--2--9--2--4--2--2-----2--2--4--2--2--9--2--4--2--2-----6--6--6--6-----2-----------2--9--9--6--------2--9--
B|--------------------------------------------------------------------------4--2-----------------------------
G|-----------------------------------------------------------------------------------------------------------
D|-----------------------------------------------------------------------------------------------------------
A|-----------------------------------------------------------------------------------------------------------
E|-----------------------------------------------------------------------------------------------------------

E|--9--6-----4--6--6--6--6-----2--2-----7-----9--6--9--6--9--6--9--6--4--7--------7--6-----2--2--2--2--6--6--
B|-----------------------------------4-----------------------------------------4-----------------------------
G|-----------------------------------------------------------------------------------------------------------
D|-----------------------------------------------------------------------------------------------------------
A|-----------------------------------------------------------------------------------------------------------
E|-----------------------------------------------------------------------------------------------------------

E|--14-13-11-11-11----7--6-----6--6--6--6--9--7--6--4--2--1--1--1-----7--6-----2--2--2--2--6--6--14-13-11-11-
B|-----------------4-----------------------------------------------4-----------------------------------------
G|-----------------------------------------------------------------------------------------------------------
D|-----------------------------------------------------------------------------------------------------------
A|-----------------------------------------------------------------------------------------------------------
E|-----------------------------------------------------------------------------------------------------------

E|--11----7--9--6--6--6--6--9--7--6--4--2-----1--1--1-----7--6--2--2--2--6--11-11-11-9--6--6--6--6--1--
B|-----4-----------------------------------------------4-----------------------------------------------
G|-----------------------------------------------------------------------------------------------------
D|-----------------------------------------------------------------------------------------------------
A|-----------------------------------------------------------------------------------------------------
E|-----------------------------------------------------------------------------------------------------





Paste any tab in acousterr's tab maker and we'll play it !!!
Now supports capo and sound effects for vibrato/pull-off/hammer/bends/mutes etc !!! Checkout help section
tabs and chords, guitar tabs, music transcription, music technology, deep learning, music information retrieval, transcribe into tabs & chords, chordify, music renditions, songsterr, reverbnation, tabulature, bollywood chords, ultimate guitar, yousician, guitar lessons, acoustic guitar, electric guitar, guitar tuner, 911 tabs