Guitar Tabs for Factory #1

(/) Slide Up  (\) Slide Down  (h) Hammer On  (p) Pull Off  (b) Bend (r) Release (v) Vibrato (x) Muted

Tabs for Song : 
BPM : 200

1st solo 
E|--15b16-15-15-13-------------10b11-10-10-8--7-----------7--8--10-11-13-15b16----
B|-----------------16-15-13-12-------------------9--8--6--------------------------
G|--------------------------------------------------------------------------------
D|--------------------------------------------------------------------------------
A|--------------------------------------------------------------------------------
E|--------------------------------------------------------------------------------

E|--15-15-13-------------------------------------------13-------18-17-13-17-13----13----------------
B|-----------13----------------------------13-16-13-16-------------------------16----16-13-16-13----
G|--------------13-12----------------10-13-------------------------------------------------------15-
D|--------------------13-12-------------------------------------------------------------------------
A|--------------------------13----------------------------------------------------------------------
E|--------------------------------------------------------------------------------------------------

E|--15-11----11----------------------------------------------------------------20----------18-------------
B|--------15----15-11-15-11----11-------------------16-------20-------20----------18----------16----------
G|--------------------------13----13-12-------12-13----15-17----17-19----------------17-13-------15-12----
D|--------------------------------------------------------------------------------------------------------
A|--------------------------------------------------------------------------------------------------------
E|--------------------------------------------------------------------------------------------------------

E|--16-15-13----------------------------------------------------------------------
B|-----------16-15-13-------------------------------------------------------------
G|--------------------15-13-12-------------------------------------------------13-
D|-----------------------------15-13-12----10-13-12-13-8--13-12-13-10-13-12-13----
A|--------------------------------------------------------------------------------
E|--------------------------------------------------------------------------------

2nd solo
E|--11-8-----------8--11-15----------15-20-15----------15-20----
B|--------8-----8-----------13----13----------16----16----------
G|-----------8-----------------12----------------17-------------
D|--------------------------------------------------------------
A|--------------------------------------------------------------
E|--------------------------------------------------------------

E|--15-------13-------11-------10-------------8--10-11-10-8--10-11-13-11-10-11-13-15-13-11-16----
B|-----16-------15-------13-------11-------------------------------------------------------------
G|--------17-------15-------13-------12----------------------------------------------------------
D|-----------------------------------------------------------------------------------------------
A|-----------------------------------------------------------------------------------------------
E|-----------------------------------------------------------------------------------------------

E|--13-15-16-15-13-15-16-18-16-15-16-18-20-18-16-22-------15-------13-------------16-19-19-16----------
B|-----------------------------------------------------------16-------15-------18-------------19-18----
G|--------------------------------------------------------------17-------15-19-------------------------
D|-----------------------------------------------------------------------------------------------------
A|-----------------------------------------------------------------------------------------------------
E|-----------------------------------------------------------------------------------------------------

E|--11-10-8--------------8--11-10-8--------------8-----------------------------------------------------
B|-----------11-8--9--11-------------11-8--9--11-------------------------------------------------------
G|--------------------------------------------------8--7--5--------------5--8--7--5--------------5-----
D|-----------------------------------------------------------8--5--6--8--------------8--5--6--8--------
A|-----------------------------------------------------------------------------------------------------
E|-----------------------------------------------------------------------------------------------------

E|--
B|--
G|--
D|--
A|--
E|--

Use manual mode to free up cursor. Paste any tab in acousterr tab maker and we'll play it !!!
E|--
B|--
G|--
D|--
A|--
E|--
tabs and chords, guitar tabs, music transcription, music technology, deep learning, music information retrieval, transcribe into tabs & chords, chordify, music renditions, songsterr, reverbnation, tabulature, bollywood chords, ultimate guitar, yousician, guitar lessons, acoustic guitar, electric guitar, guitar tuner, 911 tabs