Guitar Tabs for A Major Chords/ Arps

CHORDS AND ARPS, A MAJOR

CHORDS:  A, B, C?, D, E, F?, and G?.

    A     BM    C?M   D      E     F?M   G?D    A
E|--5-----7-----9-----10----0-----2-----------5-----
B|--5-----7-----9-----10----0-----2-----------5-----
G|--6-----7-----9-----11----1-----2-----------6-----
D|--7-----9-----11----12----2-----4-----6-----7-----
A|--7-----9-----11----12----2-----4-----5-----7-----
E|--5-----7-----9-----10----0-----2-----4-----5-----



ARPS:

   A                                    BM
E|--------------9--12-------------------------------10-14----
B|-----------10----------------------------------12----------
G|--------9-----------------------------------11-------------
D|-----11----------------------------------12----------------
A|--12----------------------------------14-------------------
E|-----------------------------------------------------------


    C?M                                   D
E|--------------0--4--------------------------------2--5-----
B|-----------2-----------------------------------3-----------
G|--------1-----------------------------------2--------------
D|-----2-----------------------------------4-----------------
A|--4-----------------------------------5--------------------
E|-----------------------------------------------------------

'   E                                    F?M
E|--------------4--7--------------------------------5--9-----
B|-----------5-----------------------------------7-----------
G|--------4-----------------------------------6--------------
D|-----6-----------------------------------7-----------------
A|--7-----------------------------------9--------------------
E|-----------------------------------------------------------

tabs and chords, guitar tabs, music transcription, music technology, deep learning, music information retrieval, transcribe into tabs & chords, chordify, music renditions, songsterr, reverbnation, tabulature, bollywood chords, ultimate guitar, yousician, guitar lessons, acoustic guitar, electric guitar, guitar tuner, 911 tabs