Guitar Tabs for Eyes Nose Lips - Taeyang

(/) Slide Up  (\) Slide Down  (h) Hammer On  (p) Pull Off  (b) Bend (r) Release (v) Vibrato (x) Muted

Tabs for Song : 

Song lyrics here
E|--7-----------8--------------7--------------8-----------------------------------0-----------------------------------
B|--8-----8-----9--------9-----8--------8-----9-----------0-----0---0\1-----1--------1-----0---------0h3-----3-----3--
G|--9--9-----9--10----10----10-9-----9-----9--10----------------0---0\---------------------------0--------------------
D|--------------------------------------------------------2--2-----------2--------------------0-----------0-----------
A|--------------------------------------------------------3-----------------3--3-----------2-----------------2--2-----
E|--8--------------8--------------8--------------8--------------------------------------------------------------------

E|--------0-----------------------------------------------------0--------------------------------0--------------------
B|--3-----------------------------------------------------3--3-----1--1-----1--1-----------3--3-----1--1-----1---1h3--
G|-----0-----5--5-----5------5\7------5h4--5---5h4--4--------------------2-----------2--------------------0-----------
D|-----------------7------------------2h---2--------2--2-----------------3-----------3--3-----------------2-----------
A|--------0--------------0-----------------------------------------------------------------------3--------------------
E|--------------------------------4-----------------4-----------1-----------------1-----------------------------------

E|-----------------0------------------------1h0--0-----------------------------------0-----1--0-----------3--3--3--3--
B|--3-----1--1--------3--3--1--3--------------------3---3h1--1--------1-----1--3--3--------------------1--------------
G|--------0--------------------1--------1--------------------------1-----------------------0--------0-----------------
D|-----2--------2--------------------0--0---------------3h---------3-----3--------------2--------2--------------------
A|--3-----3--------------------------------------------------------------------------3--------------------3-----------
E|-----------------0--------------0---------1h------------------1-----------------------------------------------------

E|--0--------0--0-----------------3--3--3--3--0-----0--------------------------------------0-----------------1--0-----
B|--------3-----------3--3-----------------------3-----------0------0h1---------------1\3-----3---------0h1-----------
G|-----0-----------0-----------0-----------------------------------------------2--------------------------------------
D|--2-----------------------0-----------------0--------7--------2-----------2-----2-----------------2-----------------
A|--------------2-----------------2--------------------0--7--------------0--------------------------------------------
E|-----------------------------------------------------------------------------------------4-----4-----------4-----4--

E|-----0--------------------3--------------0-----------------
B|--3-----3--------1-----------1--1--3--3--------1-----------
G|--4-----2-----2-----------------------0-----------0--------
D|-----------3-----------3--------------2-----2-----------2--
A|--------------------------------------3--------------3-----
E|--------1-----------1--------------------------------------

Song lyrics here
E|--
B|--
G|--
D|--
A|--
E|--

Paste any tab in acousterr's tab maker and we'll play it !!!
Now supports capo and sound effects for vibrato/pull-off/hammer/bends/mutes etc !!! Checkout help section
tabs and chords, guitar tabs, music transcription, music technology, deep learning, music information retrieval, transcribe into tabs & chords, chordify, music renditions, songsterr, reverbnation, tabulature, bollywood chords, ultimate guitar, yousician, guitar lessons, acoustic guitar, electric guitar, guitar tuner, 911 tabs