Guitar Tabs for Extreme - More Then Words

Extreme - More Then Words

Tuning: Eb Ab Db Gb Bb Eb (Half Step Down)

Intro 

   G        G/B      C9
E|-----3--x--3--3--x--3--3--x-----3-----x--
B|-----3--x--3--3--x--3--3--x-----3--3--x--
G|-----0--x--0--0--x--0--0--x-----0--0--x--
D|--------x--------x--------x-----------x--
A|--------x--2-----x--3-----x--3--3--3--x--
E|--3-----x--------x--------x-----------x--
                                                   2x
   Am7                  C            D  D4
E|-----0--x-----3-----x-----0--x-----2--3--x--
B|--1--1--x-----1--1--x--1--1--x-----3--3--x--
G|--0--0--x-----0--0--x--0--0--x--2--2-----x--
D|--------x-----------x--------x--------0--x--
A|--0-----x--0--0--0--x--3-----x-----------x--
E|--------x-----------x--------x-----------x--

1st Verse

***All the song follows the same intro pattern and beat to the strum!***

    G  G/B            C9
         Saying "I love you"

   Am7             C       D     D4  G
Is not the words I want to hear from you
 
G/B              C9       Am7
It's not that I want you not to say

    C      D  D4
But if you only knew

Pre-Chorus

Em     Am7
   How easy
   
D7               G      D9/F#   Em
It would be to show me how you feel

           Am7
More than words

   D7               G7            C
Is all you have to do to make it real

          Cm               G
Then you wouldn't have to say

          Em7
That you love me

      Am7    D7
Cause I'd already know

Chorus

G                 D9/F#
  What would you do
  
       Em        Bm       C
If my heart was torn in two

                             Am7
More than words to show you feel

           D7             G
That your love for me is real

                D9/F#
What would you say

      Em         Bm     C
If I took those words away

                               Am7
Than you couldn't make things new

         D7
Just by saying I love you

Pos-Chorus

G  G/B  C9             Am7            C
       Da ri da la ri ra ri la la ri la
       
 D     D4  G    G/B
More than words

 C9             Am7  D7
Da ri da la ri ra

2nd Verse

G G/B               C9
    Now that I've tried to
    
  Am7             C       D  D4     G  G/B
Talk to you and make you understand

         C9             Am7
All you have to do is close your eyes

      C          D   D4   Em
And just reach out your hands

Pre-Chorus

     Am7
And touch me
 D7                  G     D/F#   Em
Hold me close, don't ever let me go
           Am7
More than words
   D7          G7             C
Is all I ever needed you to show
          Cm               G
Then you wouldn't have to say
          Em7
That you love me
      Am7    D7   D7(b9)   G
Cause I'd already        know

Chorus

                D9/F#
What would you do

   Em        Bm       C
If my heart was torn in two

                         G/B Am7
More than words to show you feel

           D7             G
That your love for me is real

                D9/F#
What would you say

   Em         Bm     C
If I took those words away

                               Am7
Than you couldn't make things new

         D7            G
Just by saying I love you

----------------------------------------------------------------------------
Chords

   Am7    Bm    C     C9 
E|--0-----2-----0-----3--
B|--1-----3-----1-----3--
G|--0-----4-----0-----0--
D|--2-----4-----2-----2--
A|--0-----2-----3-----3--
E|-----------------------

    Cm    D     D/F#  D4 
E|--3-----2-----2-----3--
B|--4-----3-----3-----3--
G|--5-----2-----2-----2--
D|--5-----0-----------0--
A|--3--------------------
E|--------------2--------

    D7  D7(b9) D9/F#  Em 
E|--2-----------0-----0--
B|--1-----4-----3-----0--
G|--2-----5-----2-----0--
D|--0-----4-----0-----2--
A|--------5-----------2--
E|--------------2-----0--

   Em7    G    G/B    G7
E|--0-----3-----3-----3--
B|--3-----3-----3-----3--
G|--0-----0-----0-----4--
D|--2-----0-----0-----3--
A|--2-----2-----2-----5--
E|--0-----3-----------3--
tabs and chords, guitar tabs, music transcription, music technology, deep learning, music information retrieval, transcribe into tabs & chords, chordify, music renditions, songsterr, reverbnation, tabulature, bollywood chords, ultimate guitar, yousician, guitar lessons, acoustic guitar, electric guitar, guitar tuner, 911 tabs