Extrait De La Video - Michael Angelo Batio - Guitar Tabs

    
                                                                                                                                                                                                                                                                                                                                                                                                                                                                                                                                                                                                                                                                                                                                                                                                                                                                                                                                                                                                                                                                                                                                                                                              
E|--12-9-----------9--12-9-----------9--12-9-------|14-11----------11-14-11----------11-14-11------|
B|--------10-9--10----------10-9--10----------10-9-|------12-11-12----------12-11-12----------12-11|
G|-------------------------------------------------|-----------------------------------------------|
D|-------------------------------------------------|-----------------------------------------------|
A|-------------------------------------------------|-----------------------------------------------|
E|-------------------------------------------------|-----------------------------------------------|

    
                                                                                                                                                                                                                                                                                                                                                                                                                                                                                                                                                                                                                                                                                                                                                                                                                                                                                                                                                                                                                                                                                                                                                                                              
E|--10-7-----------7--10-7-----------7--10-7-------|19-16----------16-19-16----------16-19-16------|
B|--------8--7--8-----------8--7--8-----------8--7-|------17-16-17----------17-16-17----------17-16|
G|-------------------------------------------------|-----------------------------------------------|
D|-------------------------------------------------|-----------------------------------------------|
A|-------------------------------------------------|-----------------------------------------------|
E|-------------------------------------------------|-----------------------------------------------|

    
                                                                                                                                                                                                                                                                                                                                                                                                                                                                                                                                                                                                                                                                                                                                                                                                                                                                                                                                                                                                                                                                                                                                                                                              
E|--15-12----------------------------------12-15-12|17-14----------------------------------14-17-14|
B|--------13-12----------------------12-13---------|------15-14----------------------14-15---------|
G|--------------12-9-----------9--12---------------|------------14-11----------11-14---------------|
D|--------------------10-9--10---------------------|------------------12-11-12---------------------|
A|-------------------------------------------------|-----------------------------------------------|
E|-------------------------------------------------|-----------------------------------------------|

    
                                                                                                                                                                                                                                                                                                                                                                                                                                                                                                                                                                                                                                                                                                                                                                                                                                                                                                                                                                                                                                                                                                                                                                                              
E|--12-9-----------9--12-9-----------9--12-9-------|14-11----------------------------------11-14-11|
B|--------10-9--10----------10-9--10----------10-9-|------12-11----------------------11-12---------|
G|-------------------------------------------------|------------11-8-----------8--11---------------|
D|-------------------------------------------------|------------------9--8--9----------------------|
A|-------------------------------------------------|-----------------------------------------------|
E|-------------------------------------------------|-----------------------------------------------|

    
                                                                                                                                                                                                                                                                                                                                                                                                                                                                                                                                                                                                                                                                                                                                                                                                                                                                                                                                                                                                                                                                                                                                                                                              
E|--10-7-----------7--10-7-----------7--10-7-------|19-16----------------------------------16-19-16|
B|--------8--7--8-----------8--7--8-----------8--7-|------17-16----------------------16-17---------|
G|-------------------------------------------------|------------16-13----------13-16---------------|
D|-------------------------------------------------|------------------14-13-14---------------------|
A|-------------------------------------------------|-----------------------------------------------|
E|-------------------------------------------------|-----------------------------------------------|

    
                                                                                                                                                                                                                                                                                                                                                                                                                                                                                                                                                                                                                                                                                                                                                                                                                                                                                                                                                                                                                                                                                                                                                                                              
E|--15-12------------------------------------------|---------------12-15-12-17-14------------------|
B|--------13-12------------------------------------|---------12-13----------------15-14------------|
G|--------------12-9-------------------------------|---9--12----------------------------14-11------|
D|--------------------10-9-----------------------9-|10----------------------------------------12-11|
A|--------------------------10-7-----------7--10---|-----------------------------------------------|
E|--------------------------------8--7--8----------|-----------------------------------------------|

    
                                                                                                                                                                                                                                                                                                                                                                                                                                                                                                                                                                                                                                                                                                                                                                                                                                                                                                                                                                                                                                                                                                                                                                                              
E|-----------------------------------------14-17-14|20-17------------------------------------------|
B|-----------------------------------14-15---------|------18-17------------------------------------|
G|-----------------------------11-14---------------|------------17-14------------------------------|
D|-----------------------11-12---------------------|------------------15-14----------------------14|
A|--12-9-----------9--12---------------------------|------------------------15-12----------12-15---|
E|--------10-9--10---------------------------------|------------------------------13-12-13---------|

    
                                                                                                                                                                                                                                                                                                                                                                                                                                                                                                                                                                                                                                                                                                                                                                                                                                                                                                                                                                                                                                                                                                                                                                                              
E|-----------------17-20-17-19-16------------------|---------------------------------------16-19-16|
B|-----------17-18----------------17-16------------|---------------------------------16-17---------|
G|-----14-17----------------------------16-13------|---------------------------13-16---------------|
D|--15----------------------------------------14-13|---------------------13-14---------------------|
A|-------------------------------------------------|14-11----------11-14---------------------------|
E|-------------------------------------------------|------12-11-12---------------------------------|

    
                                                                                                                                                                                                                                                                                                                                                                                                                                                                                                                                                                                                                                                                                                                                                                                                                                                                                                                                                                                                                                                                                                                                                                                              
E|--22-19----------------------------------19-22-19|20-17----------------------------------17-20-17|
B|--------20-19----------------------19-20---------|------18-17----------------------17-18---------|
G|--------------19-16----------16-19---------------|------------17-14----------14-17---------------|
D|--------------------17-16-17---------------------|------------------15-14-15---------------------|
A|-------------------------------------------------|-----------------------------------------------|
E|-------------------------------------------------|-----------------------------------------------|

    
                                                                                                                                                                                                                                                                                                                                                                                                                                                                                                                                                                                                                                                                                                                                                                                                                                                                                                                                                                                                                                                                                                                                                                                              
E|--21-18------------------------------------------|---------------18-21-18-21---------|
B|--------19-18------------------------------------|---------18-19---------------------|
G|--------------18-15------------------------------|---15-18---------------------------|
D|--------------------16-15----------------------15|16---------------------------------|
A|--------------------------16-13----------13-16---|-----------------------------------|
E|--------------------------------14-13-14---------|-----------------------------------|

    
                                                                                                                                                                                                                                                                                                                                                                                                                                                                                                                                                                                                                                                                                                                                                                                                                                                                                                                                                                                                                                                                                                                                                                                              
E|--21-18-------20-17-------19-16-------18-15------|17-14-------18-15-------19-16-------20-17------|
B|--------19-18-------18-17-------17-16-------16-15|------14-13-------15-16-------16-17-------17-18|
G|-------------------------------------------------|-----------------------------------------------|
D|-------------------------------------------------|-----------------------------------------------|
A|-------------------------------------------------|-----------------------------------------------|
E|-------------------------------------------------|-----------------------------------------------|

    
                                                                                                                                                                                                                                                                                                                                                                                                                                                                                                                                                                                                 
E|--21---------------------|
B|-------------------------|
G|-------------------------|
D|-------------------------|
A|-------------------------|
E|-------------------------|

About Celine Dion - CĂ©line Marie Claudette Dion is one of Canada's best-selling artists of all time . She emerged as a teen star in her homeland with a series of French-language albums during the 1980s . She remains the best-seller Canadian artist . During the 1990s, she achieved worldwide fame after releasing several best-selling English albums . She also scored a series of international number-one hits, including "The Power of Love", "Think Twice", "Because You Loved Me", "It's All Coming Back to Me Now", "My Heart Will Go On", and Her recordings are mainly in French and English, although she also sings in Spanish, Italian, German, Latin, and Mandarin Chinese . She has won five Grammy Awards, including Album of the Year and Record of the year . Her music has been influenced by genres ranging from rock and R&B to gospel . Celine Dion's music is influenced by genre(s) - pop chanson soft rock.

tabs and chords, guitar tabs, music transcription, music technology, deep learning, music information retrieval, transcribe into tabs & chords, chordify, music renditions, songsterr, reverbnation, tabulature, bollywood chords, ultimate guitar, yousician, guitar lessons, acoustic guitar, electric guitar, guitar tuner, 911 tabs