Ukulele Tabs for Evil Morty Theme ( Fabian Donoso)

(/) Slide Up  (\) Slide Down  (h) Hammer On  (p) Pull Off  (b) Bend (r) Release (v) Vibrato (x) Muted

Tabs for Song : 

Song lyrics here
A|-----1-----1-----1-----1-----1-----1-----1-----1--------------------------------------------------
E|--------3-----------3-----------3-----------3-----------1-----------1-----------1-----------------
C|--1-----------1-----------1-----------1-----------0-----------0-----------0-----------0-----3-----
G|-----------------------------------------------------1-----1-----1-----1-----1-----1-----1-----1--

A|-----------------------------2-----2-----2-----2--3-----3-----1-----1-----------------------------
E|--------1-----------1-----------------------------3-----3-----1-----1-----4-----4-----3-----3-----
C|--2-----------2-----------2-----------2--------------3-----3-----1-----1-----0-----0-----2-----2--
G|-----1-----1-----1-----1--------1-----------1-----------------------------5-----5-----0-----0-----

A|-----3-----3-----3-----3-----1-----1-----2------2h
E|--------4-----------4-----------1-----------3-----
C|--3-----------3-----------2-----------2-----------
G|--------------------------------------------------

A|--------------------------3--------3--1--------------------------------------------3--1-----------------------------------
E|--------------------------3-----3-----1-----------3-----------3-----1--3--------3-----1-----------3-----------3-----1--3--
C|--------------------------3--3--------2-----------3-----------2-----2--3-----3--------2-----------3-----------2-----2--3--
G|--------------------------------------------1-----0-----1-----0--------0--------------------1-----0-----1-----0--------0--

A|--3--3--3-----3-----3--3-----3--3-----3-----3--3-----------------------------------------------------2--2-----2-----2----------
E|--3--3--3-----3-----3--3-----3--3-----3-----3--3-----4--4-----4-----4--4-----3--3-----3-----3--3-----1--1-----1-----1--------
C|--3--3--3-----3-----3--3-----3--3-----3-----3--3-----3--3-----3-----3--3-----2--2-----2-----2--2-----2--2-----2-----2--------
G|-----------------------------------------------------5--5-----5-----5--5-----4--4-----4-----4--4-----------------------------

A|--
E|--
C|--
G|--

Song lyrics here
A|--
E|--
C|--
G|--

Paste any tab in acousterr's tab maker and we'll play it !!!
Now supports capo and sound effects for vibrato/pull-off/hammer/bends/mutes etc !!! Checkout help section
tabs and chords, guitar tabs, music transcription, music technology, deep learning, music information retrieval, transcribe into tabs & chords, chordify, music renditions, songsterr, reverbnation, tabulature, bollywood chords, ultimate guitar, yousician, guitar lessons, acoustic guitar, electric guitar, guitar tuner, 911 tabs