Everytime - Guitar Tabs

(/) Slide Up  (\) Slide Down  (h) Hammer On  (p) Pull Off  (b) Bend (r) Release (v) Vibrato (x) Muted

Tabs for Song : capo on 3rd fret
BPM : 200

Song lyrics here 
E|--------------------------0-----3---5/7-----------3--0--1--3--1--1--0--1--0--1---1/3--1--1--0--1--------------
B|---3/5--3--1--1-----3--------------------------0---------------------------------------------------3/5--3--1--
G|-----------------0-----0-----0--------------0-----------------------------------------------------------------
D|-----------------------------------------------------------3---------------------3/---------------------------
A|--------------3-----------------------------------------------------------------------------------------------
E|-----------------------------------------0--------------------------------------------------------------------

E|--------------0-----3---5/7-----------3-----3--5--3--------3-----3--1--1--0--1-----------------
B|--1-----3--------------------------0-----5-----------6--5-----6------------------3/5--3--1-----
G|-----0-----0-----0--------------0--------------------------------------------------------------
D|-----------------------------------------------3-----------3-----3-----------------------------
A|--3-----------------------------------------------------------------------------------------3--
E|-----------------------------0-----------------------------------------------------------------

Song lyrics here 
E|--
B|--
G|--
D|--
A|--
E|--

Use manual mode to free up cursor. Paste any tab in acousterr tab maker and we'll play it !!!

About Everytime : "Everytime" is a song by Britney Spears on her fourth studio album, In the Zone (2003) It was released on May 10, 2004, by Jive Records . After her relationship with Justin Timberlake ended in 2002, she became friends with her backing vocalist Annet Artani . "Everytime" is a pop ballad with breathy vocals . The song went number one in five countries and top five in twelve other countries . It is also certified Gold in seven countries . The music video for "Everytime" was directed by David LaChapelle . Spears is portrayed as a pop star fighting with a male companion as she is hounded by paparazzi . It was released in 2004. It was released as part of album In the Zone. The genre is pop. The track was release in 2004. Everytime has a significant contribution from artist(s) Justin Timberlake,Annet Artani. It is related to the album(s) - In the Zone.

About Britney Spears - Britney Jean Spears is credited with influencing the revival of teen pop during the late 1990s and early 2000s . She is referred to as the "Princess of Pop" for which she is referred Spears's first two studio albums, ...Baby One More Time (1999) and Oops!... I Did It Again (2000), were global successes and made her the best-selling teenage artist of all time . Spears signed with Jive Records in 1997 . Four of Spears's singles have reached number one on the US Billboard Hot 100 . Other singles, "Oops!... I Did It Again", "Toxic", and "Scream & Shout", topped the charts in most countries . Britney Spears had an affiliation to band(s) - Britney Jean Spears. Britney Spears's music is influenced by genre(s) - pop dance-pop hip hop.

tabs and chords, guitar tabs, music transcription, music technology, deep learning, music information retrieval, transcribe into tabs & chords, chordify, music renditions, songsterr, reverbnation, tabulature, bollywood chords, ultimate guitar, yousician, guitar lessons, acoustic guitar, electric guitar, guitar tuner, 911 tabs