Guitar Tabs for Everyday World

(/) Slide Up  (\) Slide Down  (h) Hammer On  (p) Pull Off  (b) Bend (r) Release (v) Vibrato (x) Muted

Tabs for Song : 

Song lyrics here
E|--0-----0-----2-----------0-----0--3--2--------2--0--------------0--------------------------
B|-----------3-----------3-----------------------------3--0--2--3-----3--2--0--0--------------
G|--------------------2-----------------------------------------------------------2--2--------
D|--------------------------------------------------------------------------------------------
A|--------------------------------------------------------------------------------------------
E|--------------------------------------------------------------------------------------------

E|-----0-----0-----2-----------0-----0--5--2--------0--2--3-----3--2--0--------0--3--5--3--2--0--------
B|--------------3-----------3-----------------------------------------------0--------------------------
G|--2--------------------2-----------------------------------------------------------------------------
D|-----------------------------------------------------------------------------------------------------
A|-----------------------------------------------------------------------------------------------------
E|-----------------------------------------------------------------------------------------------------

E|-----0--2-----2--0-----------0--2--7-----------------------------3--1-----1--1--5--3-----2--3--5--7--5--5--------
B|--3-----------------3--0--3-----------7--5-----------5--6-----6--------1-----------------------------------------
G|--------------------------------------------7-----7--------------------------------------------------------------
D|-----------------------------------------------------------------------------------------------------------------
A|-----------------------------------------------------------------------------------------------------------------
E|-----------------------------------------------------------------------------------------------------------------

E|--2--3--5--------------0--2--7--5--------2--3--5--3--3--2--3--2--0--0-----0--2--3-----0--------
B|-----------3--3--2--3--------------------------------------------------3-----------------------
G|-----------------------------------------------------------------------------------------------
D|-----------------------------------------------------------------------------------------------
A|-----------------------------------------------------------------------------------------------
E|-----------------------------------------------------------------------------------------------

E|--2--2--3--5--------------0--2--7--7--9--------7-----5--3--3--2--0--------0--3--2--2--0--------
B|--------------3--3--2--3-----------------10-------7--------------------3-----------------3-----
G|-----------------------------------------------------------------------------------------------
D|-----------------------------------------------------------------------------------------------
A|-----------------------------------------------------------------------------------------------
E|-----------------------------------------------------------------------------------------------

E|--------3--2--3--5--2--0-----------
B|--0--3--------------------3--2--3--
G|-----------------------------------
D|-----------------------------------
A|-----------------------------------
E|-----------------------------------

Song lyrics here
E|--
B|--
G|--
D|--
A|--
E|--

Paste any tab in acousterr's tab maker and we'll play it !!!
Now supports capo and sound effects for vibrato/pull-off/hammer/bends/mutes etc !!! Checkout help section
tabs and chords, guitar tabs, music transcription, music technology, deep learning, music information retrieval, transcribe into tabs & chords, chordify, music renditions, songsterr, reverbnation, tabulature, bollywood chords, ultimate guitar, yousician, guitar lessons, acoustic guitar, electric guitar, guitar tuner, 911 tabs