Every Country's Sun - Mogwai - Guitar Tabs

(/) Slide Up  (\) Slide Down  (h) Hammer On  (p) Pull Off  (b) Bend (r) Release (v) Vibrato (x) Muted

Tabs for Song : 
BPM : 200

This is pretty much all the notes. After this it just repeats.
Based off the KEXP live video.
E|-----------------------------------------------------------------------------------------------------------------------------------------
B|-----------------------------------------------------------------------------------------------------------------------------------------
G|--------------------------------------------------------------------------------------------------------------------------------3--------
D|-----------------------------------------------------------------------------------------------------------------------3-----3-----------
A|--1--------------1--------------3--5--------------5--3-----------------5--6-----------8--------6--------5-----1--------------------------
E|-----------------------------------------------------------------------------------------------------------------------------------------

E|--------------------------------------------------------------------------------------------------------------------------
B|--------------------------------------------------------------------------------------------------------------------------
G|--5-----3-----------5--3-----------3--5-----------3-----------------5-----3--------------------------5-----7--------------
D|--------------3-----------------------------------------3--------------------3--------1--3--1--3--------------------------
A|--------------------------------------------------------------------------------------------------------------------------
E|--------------------------------------------------------------------------------------------------------------------------

E|-----------------------------------
B|-----------------------------------
G|--5-----7-----3--------2-----------
D|-----------------------------------
A|-----------------------------------
E|-----------------------------------

E|-----------------------------------------
B|-----------------------------------------
G|-----------------------------------------
D|--1--3--1--3-----------------------------
A|-----------------5-----1--------1--1--5--
E|-----------------------------------------

E|--13-13-13-13----13----13-15-13-13-------------------------18----20-18-------
B|--------------------------------------11-------11----15-------15-------15-13-
G|-----------------------------------------------------------------------------
D|-----------------------------------------------------------------------------
A|-----------------------------------------------------------------------------
E|-----------------------------------------------------------------------------

E|--13-13-13-13----13----13-15-13-13----------------------
B|--------------------------------------11-------11----15-
G|--------------------------------------------------------
D|--------------------------------------------------------
A|--------------------------------------------------------
E|--------------------------------------------------------

E|-------------------------------------------------------------------------------------------------------------------------------
B|-----------------------------------------------------------------------------------------------------------------13----11-------
G|--10-10-10-10----10----10-12-10-10-------------------------------------10-10-10-10----10----10-12-10-10-------10----------10----
D|--------------------------------------8--------8--10-------12-10----------------------------------------------------------------
A|--------------------------------------------------------------------------------------------------------------------------------
E|--------------------------------------------------------------------------------------------------------------------------------

Song lyrics here 
E|--
B|--
G|--
D|--
A|--
E|--

Use manual mode to free up cursor. Paste any tab in acousterr tab maker and we'll play it !!!

About Every Country's Sun : Every Country's Sun is the ninth studio album by Scottish post-rock band Mogwai . It was released on 1 September 2017 by Rock Action Records in the United Kingdom and Europe . In April 2016, guitarist Stuart Braithwaite told The Guardian that the band were writing new songs . On 25 November, Fridmann announced that they had started recording the album with him . On 3 March 2017, the band have completed recording and were mastering the album at Abbey Road Studios . Mogwai played a show at Primavera Sound festival in Barcelona . On 14 May 2017, the band announced the title and release date of the new album . It had an affiliation to bands - Every Country's Sun,Mogwai. Its music is influenced by genres - post-rock.

tabs and chords, guitar tabs, music transcription, music technology, deep learning, music information retrieval, transcribe into tabs & chords, chordify, music renditions, songsterr, reverbnation, tabulature, bollywood chords, ultimate guitar, yousician, guitar lessons, acoustic guitar, electric guitar, guitar tuner, 911 tabs