Guitar Tabs for Óda Evci, Evcóda


Tabulatura pro mou milovanou Evcu, óda - Evcóda

capo at 3rd fret: Intro
E|--------------------------------------------------
B|-----------1--------1--------------1--------1-----
G|--------2-----2--------2--------2-----2--------2--
D|-----2-----------2-----------2-----------2--------
A|--0-----------------------0-----------------------
E|--------------------------------------------------

E|--------------------0-----------------0--
B|-----------1-----------1--------1-----1--
G|--------2-----2-----------------2--------
D|-----2-----------2-----------2-----2-----
A|--0-----------------------0--------------
E|-----------------------------------------

capo at 3rd fret: Sloka
E|--------------------------------------------------
B|--------1-----------1-----------------------1-----
G|--------2-----------0--------2-----0--------2-----
D|-----2-----2-----2-----2-----3-----2-----2-----2--
A|--0-----------3--------------3-----2--0-----------
E|--------------------------1-----0-----------------

E|--------------------------------------------------
B|--------1-----------3--------1--------------1-----
G|--------0--------2-----2-----2-----0--------2-----
D|-----2-----2--0--------------2-----2-----2-----2--
A|--3-----------------------0--------2--0-----------
E|--------------------------------0-----------------

capo at 3rd fret: Refrén 0-25%
E|--------------------------------------------------
B|--------1-----------1-----------1-----------1-----
G|--------2-----------2-----------0-----------0-----
D|-----2-----2-----2-----2-----2-----2-----2-----2--
A|--0-----------0-----------3-----------3-----------
E|--------------------------------------------------

capo at 3rd fret: Refrén 25-50%
E|--------------------------------------------------
B|-----------------------------------5--6--5--------
G|--------9-----10-9---7/5------5\7-----------7--5--
D|-----7-----7--------------------------------------
A|--0-----------------------3-----------------------
E|--------------------------------------------------

capo at 3rd fret: Refrén 50-75%
E|--------------------------------------------------
B|--------1-----------1-----------1-----------1-----
G|--------2-----------2-----------0-----------0-----
D|-----2-----2-----2-----2-----2-----2-----2-----2--
A|--0-----------0-----------3-----------3-----------
E|--------------------------------------------------

capo at 3rd fret: Refrén 75-100%
E|--------------------------------------------------
B|--------1-----------1-----------1--5--6--5--------
G|--------2-----------2-----------0-----------7--5--
D|-----2-----2-----2-----2-----2--------------------
A|--0-----------0-----------3-----------------------
E|--------------------------------------------------

capo at 3rd fret: Premostení refrénu na sloku
E|--------------0------------------3p0-----------
B|-----------1-----------------1---------1h3-----
G|--------2-----------------2--------------------
D|-----2-----------------2-----------------------
A|--0-----------------0--------------------------
E|-----------------------------------------------

E|--------------0------------------3p0-----------
B|-----------1-----------------1---------1h3-----
G|--------2-----------------2-----------------2--
D|-----2-----------------2-----------------------
A|--0-----------------0--------------------------
E|---------------------------------------------------

tabs and chords, guitar tabs, music transcription, music technology, deep learning, music information retrieval, transcribe into tabs & chords, chordify, music renditions, songsterr, reverbnation, tabulature, bollywood chords, ultimate guitar, yousician, guitar lessons, acoustic guitar, electric guitar, guitar tuner, 911 tabs