Bass Tabs for Evangelion

(/) Slide Up  (\) Slide Down  (h) Hammer On  (p) Pull Off  (b) Bend (r) Release (v) Vibrato (x) Muted

Tabs for Song : 

Song lyrics here
G|-----------------------3--1--0-----0--0--3--5--------3--3-----3--3--5--
D|-----1--3--1--3--3--3-----------3--------------3--0--------5-----------
A|--3--------------------------------------------------------------------
E|-----------------------------------------------------------------------

G|-----------------------3--1--0-----0--0--3--5--------3--3-----3--3--5--
D|-----1--3--1--3--3--3-----------3--------------3--0--------5-----------
A|--3--------------------------------------------------------------------
E|-----------------------------------------------------------------------

G|--------------------------0--1--0-----------0--1--0-----------------------------1--0--------
D|--1-----1--1--3--------------------3--1--3-----------------0--1--1--0--0--1--3--------3--1--
A|-----1-----------1--1--1-----------------------------3--3-----------------------------------
E|--------------------------------------------------------------------------------------------

G|--0--0-----------------------
D|--------3--2--3--------------
A|-----------------------------
E|-----------------3--3--5--5--

G|--------------------------0--1--0-----------0--1--0-----------------------------1--0--------
D|--1-----1--1--3--------------------3--1--3-----------------0--1--1--0--0--1--3--------3--1--
A|-----1-----------1--1--1-----------------------------3--3-----------------------------------
E|--------------------------------------------------------------------------------------------

G|--0--0-----------0--1--0--
D|--------3--2--3-----------
A|--------------------------
E|--------------------------

tabs and chords, guitar tabs, music transcription, music technology, deep learning, music information retrieval, transcribe into tabs & chords, chordify, music renditions, songsterr, reverbnation, tabulature, bollywood chords, ultimate guitar, yousician, guitar lessons, acoustic guitar, electric guitar, guitar tuner, 911 tabs