Guitar Tabs for Euan's Song #1

(/) Slide Up  (\) Slide Down  (h) Hammer On  (p) Pull Off  (b) Bend (r) Release (v) Vibrato (x) Muted

Tabs for Song : 
BPM : 200

Song lyrics here
E|-----------------------------------------------------------------------------------
B|-----------------------------------------------------------------------------------
G|-----------------------------------------------------------------------------------
D|-----------------------------------------------7--7--7--7--5--5--5--5--9--9--9--9--
A|-----9-----9-----9-----9-----5-----5-----7-----------------------------------------
E|--7-----7-----7-----7-----3-----3-----5-----5--------------------------------------

E|------------------------------------------------------------------------------
B|-----------------------------------------------------------------------------
G|-----------------------------------------------------------------------------
D|--7--7--7--7--5--5--5--5--9--9--9--9-----------------------------------------
A|--------------------------------------------------5--5--5--5--3--3--3--3-----
E|--------------------------------------5--5--5--5--------------------------3--

Song lyrics here

Guitar Tabs for Euan's Song #1






E|-----------------------------------------------------------------------------------
B|-----------------------------------------------------------------------------------
G|-----------------------------------------------------------------------------------
D|-----------------------------------------------------------------------------------
A|-----------------------------------------------5--5--5--5--3--3--3--3--7--7--7--7--
E|-----------------------------------------------------------------------------------


E|-----------------------------------------
B|-----------------------------------------
G|-----------------------------------------
D|-----------------------------------------
A|--5--5--5--5--3--3--3--3--7--7--7--7--7--
E|-----------------------------------------

tabs and chords, guitar tabs, music transcription, music technology, deep learning, music information retrieval, transcribe into tabs & chords, chordify, music renditions, songsterr, reverbnation, tabulature, bollywood chords, ultimate guitar, yousician, guitar lessons, acoustic guitar, electric guitar, guitar tuner, 911 tabs