Guitar Tabs for Eric Clapton Wonderfull Tonight

(/) Slide Up  (\) Slide Down  (h) Hammer On  (p) Pull Off  (b) Bend (r) Release (v) Vibrato

Tabs for Song : 

Song lyrics here
E|--------------------------------------------------------------------------------
B|--10-8--10-10-8-----10-8--10-------10-8--10-10-8-----10-8--10-12-13-15-15-------
G|-----------------9--------------------------------9-----------------------------
D|--------------------------------------------------------------------------------
A|--------------------------------------------------------------------------------
E|--------------------------------------------------------------------------------


E|--------------------------------------------0--------------
B|--------3--------3-----3--------------3--------3-----3-----
G|-----4--------4--------------------2-----2--------2--------
D|--5--------5--------5-----------4--------------------------
A|-----------------------------------------------------------
E|-----------------------------------------------------------
prechorus           C                     D
E|-----------------------------------------------0-----------
B|-----------------1-----------------------3--------3-----3--
G|-----------0--------0-----0-----------2-----2--------2-----
D|--------2-----2--------2-----------0-----------------------
A|-----3-----------------------------------------------------
E|-----------------------------------------------------------
  
           C                                                         G                         EM
E|--------------------0-----------------------------------------------------------------
B|-----------------------1-----------------------------------------3--------------3-----
G|--------------0-----------0-----------------------------------0--------------2--------
D|-----------2-----2-----------2-----------------------------0--------------0-----------
A|--0--2--3-----------------------------------------------------------------------------
E|--------------------------------------------------------3--------------2--------------

Now supports capo and sound effects for vibrato/pull-off/hammer/bends etc !!! Checkout help section
tabs and chords, guitar tabs, music transcription, music technology, deep learning, music information retrieval, transcribe into tabs & chords, chordify, music renditions, songsterr, reverbnation, tabulature, bollywood chords, ultimate guitar, yousician, guitar lessons, acoustic guitar, electric guitar, guitar tuner, 911 tabs