Bass Tabs for Eric Clapton - Layla

BASS TAB
Eric Clapton - Layla

G|--------------------------------------
D|--------------------------------------
A|--------5--8--5-----5--------------5--
E|--5--8-----------8-----6--6--5--8-----

or

G|--------------------------------------
D|---------0h3--0-----0-----------------
A|---0h3-----------3-----1--1--3--3--5--
E|--------------------------------------

G|-----------------------------------------
D|-----------------------------------------
A|--4-----4--3--5--7--9-----7-----9-----7--
E|-----4-----------------7-----5-----7-----

tabs and chords, guitar tabs, music transcription, music technology, deep learning, music information retrieval, transcribe into tabs & chords, chordify, music renditions, songsterr, reverbnation, tabulature, bollywood chords, ultimate guitar, yousician, guitar lessons, acoustic guitar, electric guitar, guitar tuner, 911 tabs