Bass Tabs for Eric Clapton - Hoochie Coochie Man

BASS TAB
Eric Clapton - Hoochie Coochie Man

Stop Part
G|-----------------
D|-----------------   11x
A|--4--5--7--4-----
E|--------------5--

Non Stop Part
G|--------------------------------------------------------------------------------------------
D|-----4--7--4-----4--7--4-----------------------------6--9--6-----4--7--4--------------------
A|--5-----------5--------------4--7--4-----4--7--4--7-----------5--------------4--7--5--6--7--
E|--------------------------5-----------5-----------------------------------5-----------------


tabs and chords, guitar tabs, music transcription, music technology, deep learning, music information retrieval, transcribe into tabs & chords, chordify, music renditions, songsterr, reverbnation, tabulature, bollywood chords, ultimate guitar, yousician, guitar lessons, acoustic guitar, electric guitar, guitar tuner, 911 tabs