Bass Tabs for Erasmo Carlos - Vem Quente Que Eu Estou Fervendo

Erasmo Carlos - Vem Quente Que Eu Estou Fervendo

G|-----------------------
D|-----------------------  ...
A|--------7--8--8--7--5--
E|--5--5-----------------

Bridge
G|-----------------------7-----------------------------------------
D|--------------------7-----7--------------------------------------
A|--5--5--5--3-----5-----------5--5--5-----5--6--7--7--7--7--7--7--
E|--------------5-----------------------5--------------------------
tabs and chords, guitar tabs, music transcription, music technology, deep learning, music information retrieval, transcribe into tabs & chords, chordify, music renditions, songsterr, reverbnation, tabulature, bollywood chords, ultimate guitar, yousician, guitar lessons, acoustic guitar, electric guitar, guitar tuner, 911 tabs