Guitar Tabs for Epic Awesome Cool Sonic Speed Song

(/) Slide Up  (\) Slide Down  (h) Hammer On  (p) Pull Off  (b) Bend (r) Release (v) Vibrato (x) Muted

Tabs for Song : 
BPM : 225

Song lyrics here 
E|--------------------------------------------------------------------------------------------------------7--0--
B|--------------------------------------------------------------------------------------------------9--7--------
G|-----------------------------------------------------------------------------------------9--7--6--------------
D|-----------------------------------------------------------------------7--6--4--7--5--4-----------------------
A|-----7-----7-----7-----7-----7-----------------------------7--8--7--5-----------------------------------------
E|--5-----5-----5-----5-----5-----5--7--5--7--5--7--5--7--5-----------------------------------------------------


E|-----------------------------------2--4--6--4-----------------------------------------------------------------
B|-----------------------------2--4--------------6--4-----------------------------------------------------------
G|-----------------------2--4--------------------------6--4-----------------------------------------------8-----
D|-----------------2--4--------------------------------------6--4--------------------------------6-----8-----8--
A|-----------2--4--------------------------------------------------6--4--------------6-----8--6-----6-----------
E|--0--2--4--------------------------------------------------------------6--4--6--8-----8-----------------------

E|-----------------------------------------------------------8--6--8-----------6--8-----------10-11-12-14-15-15-
B|-----------6--8--------6--8--------6--8-----------6-----8-----------8-----6-----------11-10-------------------
G|--7--6-----------8--6--------8--6--------8--6--6-----8-----------------6-----------8--------------------------
D|--------6-----------------------------------------------------------------------------------------------------
A|--------------------------------------------------------------------------------------------------------------
E|--------------------------------------------------------------------------------------------------------------

E|--15-15-15-15-15-15-15-15-15-15-15----15-15-15-15-15-15-15----15-15-15-15-15-15-15-15-15----15----15----15----
B|-----------------------------------15----------------------13----------------------------15----15----15----15-
G|--------------------------------------------------------------------------------------------------------------
D|--------------------------------------------------------------------------------------------------------------
A|--------------------------------------------------------------------------------------------------------------
E|--------------------------------------------------------------------------------------------------------------

E|-----15----15----15----15----15----15----15----15-15-15-15-15-15----15-15-15-15-15-15-------15----------15-15-
B|--15----15----15----15----15----15----15----15-------------------15-------------------14-15----15-14-13-------
G|--------------------------------------------------------------------------------------------------------------
D|--------------------------------------------------------------------------------------------------------------
A|--------------------------------------------------------------------------------------------------------------
E|--------------------------------------------------------------------------------------------------------------

E|--15-15-15-15-15-15-15----15-15-15-15-15-15-15----15-15-15-15-15-15-15-15----15-15-15-15-15-15----15-15-15-15-
B|-----------------------15-------------------------------------------------------------------------------------
G|-----------------------------------------------15-------------------------------------------------------------
D|--------------------------------------------------------------------------15----------------------------------
A|-----------------------------------------------------------------------------------------------15-------------
E|--------------------------------------------------------------------------------------------------------------

E|--15-15----------------------------15----------------------14-------------------------------------------------
B|--------------------------------------------------------------------------------13----------------------------
G|--------------------------------------------------------------------------------------------------12-15-12-13-
D|-----------------------------------------------------------------------------------15-15-15-15-15-------------
A|--------------------------------------15-15-15-15-15-15-15----15-15-15-15-15-15-------------------------------
E|--------15-15-15-15-15-15-15-15-15----------------------------------------------------------------------------

E|--------------------------------------------------------------------------15----------------------15----15----
B|--13-12-13-13-12-12-12-13-12-12-13-13-13-13-13-13----------------13-14-15----15-------------15-------15----15-
G|--------------------------------------------------------------------------------12-13-12-13----15-------------
D|-----------------------------------------------------13----11-13----------------------------------------------
A|--------------------------------------------------12----------------------------------------------------------
E|--------------------------------------------------------13----------------------------------------------------

E|--15----14----14-14----14----14-14-13----13----12----12----11----11----10----10----9-----9-----7-----5-----3--
B|-----15----14-------14----14----------13----13----12----12----11----11----10----10----9-----9-----7-----5-----
G|--------------------------------------------------------------------------------------------------------------
D|--------------------------------------------------------------------------------------------------------------
A|--------------------------------------------------------------------------------------------------------------
E|--------------------------------------------------------------------------------------------------------------

E|--15----14----14-14----14----14-14-13----13----12----12----11----11----10----10----9-----9-----7-----5-----3--
B|-----15----14-------14----14----------13----13----12----12----11----11----10----10----9-----9-----7-----5-----
G|--------------------------------------------------------------------------------------------------------------
D|--------------------------------------------------------------------------------------------------------------
A|--------------------------------------------------------------------------------------------------------------
E|--------------------------------------------------------------------------------------------------------------

E|--15----14----14-14----14----14-14-13----13----12----12----11----11----10----10----9-----9-----7-----5-----3--
B|-----15----14-------14----14----------13----13----12----12----11----11----10----10----9-----9-----7-----5-----
G|--------------------------------------------------------------------------------------------------------------
D|--------------------------------------------------------------------------------------------------------------
A|--------------------------------------------------------------------------------------------------------------
E|--------------------------------------------------------------------------------------------------------------

E|--3--5--5-----7-----7-----9-----11----13----15----17-17----19-19-------------------------17-17-16-16-15-15-13-
B|-----------5-----------7-----9-----11----13----15----------------19-19-18-18-17-17-16-16----------------------
G|-----------------7--------------------------------------17----------------------------------------------------
D|--------------------------------------------------------------------------------------------------------------
A|--------------------------------------------------------------------------------------------------------------
E|--------------------------------------------------------------------------------------------------------------

E|--13-12-12----------------------------------------------------------------------------------------------------
B|-----------14-14-13-13----------------------------------------------------------------------------------------
G|-----------------------14-14-12-12----------------------------------------------------------------------------
D|-----------------------------------12-12-14-14----------------------------------------------------------------
A|-----------------------------------------------15-15-13-13-11-11-9--9--7--5--3--1-----3-----------------------
E|-----------------------------------------------------------------------------------1-----3--1--1--1--1--4--7--

Song lyrics here 
E|-----------------------------9--9--------------------------------------------------------------7--7-----------
B|-----------------------9--9--------9--9--------------------------------------------------7--7--------7--7-----
G|-----------------9--9--------------------9--9--------------------------------------7--7--------------------7--
D|-----------9--9--------------------------------9--9--------------------------7--7-----------------------------
A|--------9--------------------------------------------9--9--------------7--7-----------------------------------
E|--7--9-----------------------------------------------------9--9--7--7-----------------------------------------

E|--------------------------------------------------------------5-----5-----5--5-----------3--3--3--------------
B|--------------------------------------------------5--------5-----5-----5--------5--3--3-----------------------
G|--7-----------------------------------5--------5--------5-----------------------------------------3--------3--
D|-----7--7--------------------5-----5-----5--5--------5--------------------------------------------------3-----
A|-----------7--7-----------------5--------------------------------------------------------------------3--------
E|-----------------7--7--5--5-----------------------------------------------------------------------------------

E|--------------------------------------------------------------------------------------------------------------
B|-----------------------------------------------------------------------------------------------------------1--
G|--------3--------------------------------------------------------------------------------------1-----3--2-----
D|--3--------3-----------------------------------------------------------------------1--3--1--3-----3-----------
A|-----3--------3--------------------------------------------1--3--1--3--1--3--1--3-----------------------------
E|-----------------3--3--3-----------1--3--1--3--1--3--1--3-----------------------------------------------------

E|--1--------4--3--4--5-----7--8--12-------------19-20-18-17-16-15-14-13-12-11-10-8--7--6--4--2--0--0--0--0--0--
B|-----3--4--------------6-----------14-15-16-18----------------------------------------------------------------
G|--------------------------------------------------------------------------------------------------------------
D|--------------------------------------------------------------------------------------------------------------
A|--------------------------------------------------------------------------------------------------------------
E|--------------------------------------------------------------------------------------------------------------

E|--0--0--0--0--0--0--0--2-----6--------8-----10-13-11-10-12-11-10----------------------------------------------
B|--------------------------4-----6--8-----10----------------------12-10----------------------------------------
G|-----------------------------------------------------------------------12-10----------------------------------
D|-----------------------------------------------------------------------------12-10----------------------------
A|-----------------------------------------------------------------------------------12-10-------------11-10-12-
E|-----------------------------------------------------------------------------------------10-12-10-12----------

E|--------------------------------------------------------------------------------------------------------------
B|-----------------------------------------------------------------7--5-----------------------------------------
G|--------------12-12-10-10-10-10-10-10-10-10-10-8--10-10-10-10-10-------4--2--1-----------------6--9-----------
D|--------12-12----------------------------------------------------------------------------------------8--7--7--
A|--12-12-------------------------------------------------------------------------------------6-----------------
E|--------------------------------------------------------------------------------1--3--6--8--------------------

E|--------------------13-12----------------------------------7--9--12-------------------------------------------
B|--8-----------------------------------7--9-----------11-11----------------8--------------12-14-------------10-
G|--------7-----------------------------------------11----------------12-10----11-------------------------------
D|-----------7--10-------------------7-----------11-------------------------------------11----------------------
A|-----------------13-------12----7-----------------------------------------------------------------13-11-9-----
E|-----10----------------------9--------------10----------------------------------13-11----------14-------------

E|-----------------------------7--------------------------------------5--7--8--11-12----------------------------------
B|--------------8--11----------------------------------------------4-----------------------------7--9-----------------
G|-----14-------------------------7--7--------------------------------------------------------------------------------
D|-----------6--------10-8--7-----------------------------------4-----------------------11-9--7-----------6--7--------
A|--------12----------------------------7--7--6--6--6--6--6--4-----------------------12----------------9--------4-----
E|--16-------------------------------------------------------------------------------------------------------------0--

E|--------------------------------1-----------------------0-----------------------------------0--0--2--2--4--4--6--6--
B|-----------------------------1-----------------------0--------------------------------0--0--------------------------
G|--------------------------1-----------------------0-----------------------------0--0--------------------------------
D|-----------------------1-----------------------0-----------------------1--0--0--------------------------------------
A|--------------1-----1-----------------------0-----------------3--1--------------------------------------------------
E|--0--0--0--0-----1-----------------2--1--0-----------------3--------1-----------------------------------------------

E|--9--9--11-11-13-13-------------------------------------------------------------------------------------------------------------------
B|--------------------15-15-13----------------------------------------------------------------------------------------------------------
G|-----------------------------15-13----------------------------------------------------------------------------------------------------
D|-----------------------------------15-13----------------------------12----12----12----12-12-------------------------------------------
A|-----------------------------------------15-13----------13-12----12----12----12----12-------12-12-10-10-8--8--6--6--4--4--2--2--0--0--
E|-----------------------------------------------13-15-13-------12----------------------------------------------------------------------

Use manual mode to free up cursor. Paste any tab in acousterr tab maker and we'll play it !!!

Guitar Tabs for Epic Awesome Cool Sonic Speed Song






E|-----7-----7-----7-----7-----7-----------------------------7--------------------------------------------------
B|--5-----5-----5-----5-----5-----5--7--5--7--5--7--5--7--5-----8--7--5-----------------------------------------
G|-----------------------------------------------------------------------7--6--4--------------------------------
D|--------------------------------------------------------------------------------7--5--4-----------------------
A|-----------------------------------------------------------------------------------------7--5--4--------------
E|--------------------------------------------------------------------------------------------------7--5--3--0--


E|--------------------------------------------------------------------------------------------------------------
B|--------------------------------------------------------------------------------------------------------------
G|--------------------------------------------------------------------------------------------------------------
D|--------------------------------------------------------------------------------------------------------------
A|--7-----7-----5-----5-----4-----4-----------------------------------------------------------------------------
E|--5-----5-----3-----3-----2-----2-----0--0--0--2--2--5--5--8--8--10-10-12-12-14-14-14-14-15-16-18-18-18-20-20-

tabs and chords, guitar tabs, music transcription, music technology, deep learning, music information retrieval, transcribe into tabs & chords, chordify, music renditions, songsterr, reverbnation, tabulature, bollywood chords, ultimate guitar, yousician, guitar lessons, acoustic guitar, electric guitar, guitar tuner, 911 tabs