Guitar Tabs for End Of You And Me - Bill Schieb

(/) Slide Up  (\) Slide Down  (h) Hammer On  (p) Pull Off  (b) Bend (r) Release (v) Vibrato (x) Muted

Tabs for Song : End of You and Me

:Intro:
E|--------------------------------------------------------------------------------------------------
B|--------------------------------------------------------------------------------------------------
G|--------0-----------0-----------0-----------0-----------2-----------2-----------0-----------0-----
D|-----0-----0-----0-----0-----0-----0-----0-----0-----0-----0-----0-----0-----0-----0-----0-----0--
A|--3-----------3-----------------------------------------------------------------------------------
E|--------------------------3-----------3-----------2-----------2-----------0-----------0-----------

:Intro:
E|--------------------------------------------------------------------------------------------------
B|--------------------------------------------------------------------------------------------------
G|--------0-----------0-----------0-----------0-----------2-----------2-----------0-----------0-----
D|-----0-----0-----0-----0-----0-----0-----0-----0-----0-----0-----0-----0-----0-----0-----0-----0--
A|--3-----------3-----------------------------------------------------------------------------------
E|--------------------------3-----------3-----------2-----------2-----------0-----------0-----------

    Long nights turn into battlefields these fights go on where no one yields
E|--------------------------------------------------------------------------------------------------
B|--------------------------------------------------------------------------------------------------
G|--------0-----------0-----------0-----------0-----------2-----------2-----------0-----------0-----
D|-----0-----0-----0-----0-----0-----0-----0-----0-----0-----0-----0-----0-----0-----0-----0-----0--
A|--3-----------3-----------------------------------------------------------------------------------
E|--------------------------3-----------3-----------2-----------2-----------0-----------0-----------

    And tonight I'm left without a sheild, and I'll take it all
E|--------------------------------------------------------------------------------------------------
B|--------------------------------------------------------------------------------------------------
G|--------0-----------0-----------0-----------0-----------2-----------2-----------2-----------2-----
D|-----0-----0-----0-----0-----0-----0-----0-----0-----0-----0-----0-----0-----0-----0-----0-----0--
A|--3-----------3-----------------------------------------------------------------------------------
E|--------------------------3-----------3-----------2-----------2-----------2-----------2-----------


    This room has left an open wound and too soon, I see a different moon
E|--------------------------------------------------------------------------------------------------
B|--------------------------------------------------------------------------------------------------
G|--------0-----------0-----------0-----------0-----------2-----------2-----------0-----------0-----
D|-----0-----0-----0-----0-----0-----0-----0-----0-----0-----0-----0-----0-----0-----0-----0-----0--
A|--3-----------3-----------------------------------------------------------------------------------
E|--------------------------3-----------3-----------2-----------2-----------0-----------0-----------

    Would you feel the same way too? And I took the fall...
E|--------------------------------------------------------------------------------------------------
B|--------------------------------------------------------------------------------------------------
G|--------0-----------0-----------0-----------0-----------2-----------2-----------2-----------2-----
D|-----0-----0-----0-----0-----0-----0-----0-----0-----0-----0-----0-----0-----0-----0-----0-----0--
A|--3-----------3-----------------------------------------------------------------------------------
E|--------------------------3-----------3-----------2-----------2-----------2-----------2-----------

    And I won't be the same, and you will feel okay 
E|--------------------------------------------------------------------------------------------------
B|--------------------------------------------------------------------------------------------------
G|--------0-----------0-----------0-----------0-----------0-----------0-----------0-----------0-----
D|-----0-----0-----0-----0-----0-----0-----0-----0-----0-----0-----0-----0-----0-----0-----0-----0--
A|--2-----------3-----------------------------------2-----------3-----------------------------------
E|--------------------------3-----------3-----------------------------------3-----------3-----------

tabs and chords, guitar tabs, music transcription, music technology, deep learning, music information retrieval, transcribe into tabs & chords, chordify, music renditions, songsterr, reverbnation, tabulature, bollywood chords, ultimate guitar, yousician, guitar lessons, acoustic guitar, electric guitar, guitar tuner, 911 tabs