Ukulele Tabs for Enchanted

(/) Slide Up  (\) Slide Down  (h) Hammer On  (p) Pull Off  (b) Bend (r) Release (v) Vibrato (x) Muted

Tabs for Song : 
BPM : 200

     
A|-----------0--------------------------------------0--------------------------------------------------------
E|-----3--1-----------------3--1--0-----------1--3-----------------1--3--0-----------3--1--------1--3--------
C|--0-----------2--------2-----------------0-----------2--------2--------------0--2--------0--2--------------
G|-----------------------------------------------------------------------------------------------------------

A|-----------------------------------
E|-----------------------------------
C|--------4--------3--------1-----0--
G|--2--4-----2--3-----2--1-----2-----

Song lyrics here 
A|-----------------0--------------------------------------0-----------------------------------------------------
E|-----------3--1-----------------3--1--0-----------1--3-----------------1--3--0--------3--1--------1--3--------
C|--------0-----------2--------2-----------------0-----------2--------2-----------0--2--------0--2--------------
G|--------------------------------------------------------------------------------------------------------------

A|-----------------------------------------
E|-----------------------------------------
C|--------4--------3--------1--------0-----
G|--2--4-----2--3-----2--1-----2--0-----0--

A|-----------------0--------------------------------------0-----------------------------------------------------
E|-----------3--1-----------------3--1--0-----------1--3-----------------1--3--0--------3--1--------1--3--------
C|--------0-----------2--------2-----------------0-----------2--------2-----------0--2--------0--2--------------
G|--------------------------------------------------------------------------------------------------------------


A|--------------------3--2--1-----------------------3----------------------------3--2--1-----
E|-----------3--2--1--------------------1-------------------------------3--2--1--------------
C|--3--2--1--------------------0--2--3-----2--3--0-------------3--2--1------------------0----
G|-------------------------------------------------------------------------------------------






Use manual mode to free up cursor. Paste any tab in acousterr tab maker and we'll play it !!!

Ukulele Tabs for Enchanted





    
A|--3--2--0--0--0--2--2--0--2--0--2--------3--0--2--0--0--2--2--0--0--2-----2--3--0--2--0--3--0--0--2--
E|--0--3--1--0--2--4--4--2--3--1--4--------0--1--3--0--2--4--4--2--1--3-----4--0--2--3--1--0--2--1--3--
C|--0--2--0--1--2--4--4--2--2--0--4--------0--0--2--1--2--4--4--2--0--2-----4--0--2--2--0--0--2--0--2--
G|--0--0--2--2--2--4--4--2--0--2--4--------0--2--0--2--2--4--4--2--2--0-----4--0--2--0--2--0--2--2--0--

A|--
E|--
C|--
G|--

Song lyrics here
A|--------3--2--0--0--0--2--2--0--2--0--2--------3--0--2--0--0--2--2--0--0--2--2--3--0--2--0--3--0--0--2--
E|--------0--3--1--0--2--4--4--2--3--1--4--------0--1--3--0--2--4--4--2--1--3--4--0--2--3--1--0--2--1--3--
C|--------0--2--0--1--2--4--4--2--2--0--4--------0--0--2--1--2--4--4--2--0--2--4--0--2--2--0--0--2--0--2--
G|--------0--0--2--2--2--4--4--2--0--2--4--------0--2--0--2--2--4--4--2--2--0--4--0--2--0--2--0--2--2--0--

A|--0x-x--x--x--x--x--x--x--x--x--x--x--x--
E|--0x-x--x--x--x--x--x--x--x--x--x--x--x--
C|--0x-x--x--x--x--x--x--x--x--x--x--x--x--
G|--0x-x--x--x--x--x--x--x--x--x--x--x--x--

A|--------3--2--0--0--0--2--2--0--2--0--2--------3--0--2--0--0--2--2--0--0--2--2--3--0--2--0--3--0--0--2--
E|--------0--3--1--0--2--4--4--2--3--1--4--------0--1--3--0--2--4--4--2--1--3--4--0--2--3--1--0--2--1--3--
C|--------0--2--0--1--2--4--4--2--2--0--4--------0--0--2--1--2--4--4--2--0--2--4--0--2--2--0--0--2--0--2--
G|--------0--0--2--2--2--4--4--2--0--2--4--------0--2--0--2--2--4--4--2--2--0--4--0--2--0--2--0--2--2--0--
tabs and chords, guitar tabs, music transcription, music technology, deep learning, music information retrieval, transcribe into tabs & chords, chordify, music renditions, songsterr, reverbnation, tabulature, bollywood chords, ultimate guitar, yousician, guitar lessons, acoustic guitar, electric guitar, guitar tuner, 911 tabs