Guitar Tabs for Eminem - Killshot

(/) Slide Up  (\) Slide Down  (h) Hammer On  (p) Pull Off  (b) Bend (r) Release (v) Vibrato (x) Muted

Tabs & Chords

Check Track 2 for Chord Positions 

    Gm          G     D     Gm          G     D     Gm          G     D     Gm          G     D  
E|-----------------------------------------------------------------------------------------------
B|-----------------------------------------------------------------------------------------------
G|-----------------------------------------------------------------------------------------------
D|--------------12----0-----------------12----0-----------------12----0-----------------12----0--
A|--13----12----------------13----12----------------13----12----------------13----12-------------
E|-----------------------------------------------------------------------------------------------

       Gm          G     D     Gm          F#    D     Gm          G     D     Gm          Am 
E|-----------10----------------------10----------------------10----------------------10----10-
B|-----11-10-------------10----11-10-------------------11-10-------------10----11-10----------
G|-----------------12----------------------------11----------------12-------------------------
D|-----------------------------------------13-------------------------------------------------
A|--------------------------------------------------------------------------------------------
E|--------------------------------------------------------------------------------------------

       D     Gm          G     D     Gm          F#    D     Gm          G     D     Gm       
E|-----------------10----------------------10----------------------10----------------------10-
B|--13-11-10-11-10-------------10----11-10-------------------11-10-------------10----11-10----
G|-----------------------12----------------------------11----------------12-------------------
D|-----------------------------------------------13-------------------------------------------
A|--------------------------------------------------------------------------------------------
E|--------------------------------------------------------------------------------------------

       Am    Dm    Gm          G     D     Gm          F#    D     Gm          G     D     Gm 
E|-----10----------------10----------------------10----------------------10-------------------
B|--------13-11-10-11-10-------------10----11-10-------------------11-10-------------10----11-
G|-----------------------------12----------------------------11----------------12-------------
D|-----------------------------------------------------13-------------------------------------
A|--------------------------------------------------------------------------------------------
E|--------------------------------------------------------------------------------------------

             Am    Dm    Gm          G     D     Gm          F#    D     Gm          G     D  
E|-----10----10----------------10----------------------10----------------------10-------------
B|--10----------13-11-10-11-10-------------10----11-10-------------------11-10-------------10-
G|-----------------------------------12----------------------------11----------------12-------
D|-----------------------------------------------------------13-------------------------------
A|--------------------------------------------------------------------------------------------
E|--------------------------------------------------------------------------------------------

       Gm          Am    D     Gm          G     D     Gm          F#    D     Gm          G  
E|-----------10----10----------------10----------------------10----------------------10-------
B|-----11-10----------13-11-10-11-10-------------10----11-10-------------------11-10----------
G|-----------------------------------------12----------------------------11----------------12-
D|-----------------------------------------------------------------13-------------------------
A|--------------------------------------------------------------------------------------------
E|--------------------------------------------------------------------------------------------

       D     Gm          Am    Dm    Gm          G     D     Gm          F#    D     Gm       
E|-----------------10----10----------------10----------------------10----------------------10-
B|-----10----11-10----------13-11-10-11-10-------------10----11-10-------------------11-10----
G|-----------------------------------------------12----------------------------11-------------
D|-----------------------------------------------------------------------13-------------------
A|--------------------------------------------------------------------------------------------
E|--------------------------------------------------------------------------------------------

       G     D     Gm          Am A  Dm    Gm          G     D     Gm          F#    D     Gm 
E|-----------------------10----10----------------10----------------------10-------------------
B|-----------10----11-10----------13-11-10-11-10-------------10----11-10-------------------11-
G|-----12----------------------------------------------12----------------------------11-------
D|-----------------------------------------------------------------------------13-------------
A|--------------------------------------------------------------------------------------------
E|--------------------------------------------------------------------------------------------

             G     D     Gm          Am    D     
E|-----10----------------------10----10----------
B|--10-------------10----11-10----------13-11-10-
G|-----------12----------------------------------
D|-----------------------------------------------
A|-----------------------------------------------
E|-----------------------------------------------

Guitar Tabs for Eminem - Killshot






    Gm          G     D     Gm          G     D     Gm          G     D     Gm          G     D  
E|--3-----------3-----2-----3-----------3-----2-----3-----------3-----2-----3-----------3-----2--
B|--3-----------3-----3-----3-----------3-----3-----3-----------3-----3-----3-----------3-----3--
G|--3-----------4-----2-----3-----------4-----2-----3-----------4-----2-----3-----------4-----2--
D|--5-----------5-----0-----5-----------5-----0-----5-----------5-----0-----5-----------5-----0--
A|--5-----------5-----------5-----------5-----------5-----------5-----------5-----------5--------
E|--3-----------3-----------3-----------3-----------3-----------3-----------3-----------3--------

       Gm          G     D     Gm          F#    D     Gm          G     D     Gm          Am 
E|-----3-----------3-----2-----3-----------2-----2-----3-----------3-----2-----3-----------0--
B|-----3-----------3-----3-----3-----------2-----3-----3-----------3-----3-----3-----------1--
G|-----3-----------4-----2-----3-----------3-----2-----3-----------4-----2-----3-----------2--
D|-----5-----------5-----0-----5-----------4-----0-----5-----------5-----0-----5-----------2--
A|-----5-----------5-----------5-----------4-----------5-----------5-----------5-----------0--
E|-----3-----------3-----------3-----------2-----------3-----------3-----------3--------------

       D     Gm          G     D     Gm          F#    D     Gm          G     D     Gm       
E|-----2-----3-----------3-----2-----3-----------2-----2-----3-----------3-----2-----3--------
B|-----3-----3-----------3-----3-----3-----------2-----3-----3-----------3-----3-----3--------
G|-----2-----3-----------4-----2-----3-----------3-----2-----3-----------4-----2-----3--------
D|-----0-----5-----------5-----0-----5-----------4-----0-----5-----------5-----0-----5--------
A|-----------5-----------5-----------5-----------4-----------5-----------5-----------5--------
E|-----------3-----------3-----------3-----------2-----------3-----------3-----------3--------

       Am    Dm    Gm          G     D     Gm          F#    D     Gm          G     D     Gm 
E|-----0-----1-----3-----------3-----2-----3-----------2-----2-----3-----------3-----2-----3--
B|-----1-----3-----3-----------3-----3-----3-----------2-----3-----3-----------3-----3-----3--
G|-----2-----2-----3-----------4-----2-----3-----------3-----2-----3-----------4-----2-----3--
D|-----2-----0-----5-----------5-----0-----5-----------4-----0-----5-----------5-----0-----5--
A|-----0-----------5-----------5-----------5-----------4-----------5-----------5-----------5--
E|-----------------3-----------3-----------3-----------2-----------3-----------3-----------3--

             Am    Dm    Gm          G     D     Gm          F#    D     Gm          G     D  
E|-----------0-----1-----3-----------3-----2-----3-----------2-----2-----3-----------3-----2--
B|-----------1-----3-----3-----------3-----3-----3-----------2-----3-----3-----------3-----3--
G|-----------2-----2-----3-----------4-----2-----3-----------3-----2-----3-----------4-----2--
D|-----------2-----0-----5-----------5-----0-----5-----------4-----0-----5-----------5-----0--
A|-----------0-----------5-----------5-----------5-----------4-----------5-----------5--------
E|-----------------------3-----------3-----------3-----------2-----------3-----------3--------

       Gm          Am    D     Gm          G     D     Gm          F#    D     Gm          G  
E|-----3-----------0-----2-----3-----------3-----2-----3-----------2-----2-----3-----------3--
B|-----3-----------1-----3-----3-----------3-----3-----3-----------2-----3-----3-----------3--
G|-----3-----------2-----2-----3-----------4-----2-----3-----------3-----2-----3-----------4--
D|-----5-----------2-----0-----5-----------5-----0-----5-----------4-----0-----5-----------5--
A|-----5-----------0-----------5-----------5-----------5-----------4-----------5-----------5--
E|-----3-----------------------3-----------3-----------3-----------2-----------3-----------3--

       D     Gm          Am    Dm    Gm          G     D     Gm          F#    D     Gm       
E|-----2-----3-----------0-----1-----3-----------3-----2-----3-----------2-----2-----3--------
B|-----3-----3-----------1-----3-----3-----------3-----3-----3-----------2-----3-----3--------
G|-----2-----3-----------2-----2-----3-----------4-----2-----3-----------3-----2-----3--------
D|-----0-----5-----------2-----0-----5-----------5-----0-----5-----------4-----0-----5--------
A|-----------5-----------0-----------5-----------5-----------5-----------4-----------5--------
E|-----------3-----------------------3-----------3-----------3-----------2-----------3--------

       G     D     Gm          Am A  Dm    Gm          G     D     Gm          F#    D     Gm 
E|-----3-----2-----3-----------0--0--1-----3-----------3-----2-----3-----------2-----2-----3--
B|-----3-----3-----3-----------1--2--3-----3-----------3-----3-----3-----------2-----3-----3--
G|-----4-----2-----3-----------2--2--2-----3-----------4-----2-----3-----------3-----2-----3--
D|-----5-----0-----5-----------2--2--0-----5-----------5-----0-----5-----------4-----0-----5--
A|-----5-----------5-----------0--0--------5-----------5-----------5-----------4-----------5--
E|-----3-----------3-----------------------3-----------3-----------3-----------2-----------3--

             G     D     Gm          Am    D     
E|-----------3-----2-----3-----------0-----2-----
B|-----------3-----3-----3-----------1-----3-----
G|-----------4-----2-----3-----------2-----2-----
D|-----------5-----0-----5-----------2-----0-----
A|-----------5-----------5-----------0-----------
E|-----------3-----------3-----------------------

tabs and chords, guitar tabs, music transcription, music technology, deep learning, music information retrieval, transcribe into tabs & chords, chordify, music renditions, songsterr, reverbnation, tabulature, bollywood chords, ultimate guitar, yousician, guitar lessons, acoustic guitar, electric guitar, guitar tuner, 911 tabs