Bass Tabs for Elvis Presley - That's All Right

Elvis Presley - That's All Right


G|--------------------------------------------------------------------------------------------------
D|--------------------------------------------------------------------------------------------------
A|--------4--4--7--7--4--7--------4--4--7--7--4--7--------4--4--7--7--4--7--------4--4--7--7--4--7--
E|--5--5--------------------5--5--------------------5--5--------------------5--5--------------------

G|--------------------------------------------------------------------------------------------------
D|--------4--4--7--7--4--7--------4--4--7--7--4--7--------6--6--9--9--6--9--------6--6--9--9--6--9--
A|--5--5--------------------5--5--------------------7--7--------------------7--7--------------------
E|--------------------------------------------------------------------------------------------------


tabs and chords, guitar tabs, music transcription, music technology, deep learning, music information retrieval, transcribe into tabs & chords, chordify, music renditions, songsterr, reverbnation, tabulature, bollywood chords, ultimate guitar, yousician, guitar lessons, acoustic guitar, electric guitar, guitar tuner, 911 tabs