Bass Tabs for Elvis Presley - Good Rocking Tonight

Elvis Presley - Good Rocking Tonight

G|--------------------------------------------------
D|--------------------------------------------------
A|--------2-----------2-----------2-----------2-----
E|--0--4-----4--0--4-----4--0--4-----4--0--4-----4--


G|--------------------------------------------------
D|--------------------------------------------------
A|-----4--7--4-----4--7--4--------2-----------2-----
E|--5-----------5-----------0--4-----4--0--4-----4--


G|--------------------------------------------------
D|--------------------------------------------------
A|-----6--9--6-----6--9--6--------2-----------2-----
E|--7-----------7-----------0--4-----4--0--4-----4--

tabs and chords, guitar tabs, music transcription, music technology, deep learning, music information retrieval, transcribe into tabs & chords, chordify, music renditions, songsterr, reverbnation, tabulature, bollywood chords, ultimate guitar, yousician, guitar lessons, acoustic guitar, electric guitar, guitar tuner, 911 tabs