Guitar Tabs for Elsword - Ignia's Boss Theme

Tabs for one of the best rock soundtracks from the videogame "Elsword"
I learn it with help of Byakuren Hijiri's cover in Youtube, so huge thanks to him for making that video
Some parts may be wrong but, that is how i like to play the song xd

BPM: 250



E|--------------------------------------------------------------------------------------------------
B|--------------------------------------------------------------------------------------------------
G|--------------------------------------------------------------------------------------------------
D|--9--9--9--9--9--9--9--9--12-12-12-12-12-12-12-12-8--8--8--8--8--8--8--8--11-11-11-11-11-11-11-11-
A|--7--7--7--7--7--7--7--7--10-10-10-10-10-10-10-10-6--6--6--6--6--6--6--6--9--9--9--9--9--9--9--9--
E|--------------------------------------------------------------------------------------------------

E|--------------------------------------------------------------------------------------------------
B|--------------------------------------------------------------------------------------------------
G|--------------------------------------------------------------------------------------------------
D|--9--9--9--9--9--9--9--9--12-12-12-12-12-12-12-12-8--8--8--8--8--8--8--8--4--4--4--4--4--4--4--4--
A|--7--7--7--7--7--7--7--7--10-10-10-10-10-10-10-10-6--6--6--6--6--6--6--6--2--2--2--2--2--2--2--2--
E|--------------------------------------------------------------------------------------------------


E|--------------------------------------------------------------------------------------------------
B|--------------------------------------------------------------------------------------------------
G|--------------------------------------------------------------------------------------------------
D|--------------2--5--2-----------------2--5--2-----------------2--5--------2--5--------2--4--2-----
A|--------------------------------------------------------------------------------------------------
E|--0-----0--0-----------0--0-----0--0-----------0--0-----0--0--------0--0--------0--0-----------0--

E|-----------------------------------------------------------------------------------------------
B|-----------------------------------------------------------------------------------------------
G|-----------------------------------------------------------------------------------------------
D|--------------2--5--2-----------------2--5--2-----------------2--5--------2--5--------2--4--2--
A|-----------------------------------------------------------------------------------------------
E|--0-----0--0-----------0--0-----0--0-----------0--0-----0--0--------0--0--------0--0-----------


E|-----------------------------
B|-----------------------------
G|-----------------------------
D|--------4--4--4--4--4--4--4--
A|--0-----2--2--2--2--2--2--2--
E|-----------------------------

E|-----------------------------------------------------------------------------------------------------
B|-----------------------------------------------------------------------------------------------------
G|--4-----4-----------4-----4-----4-----4-----4-----4--------4-----------4-----4-----------------------
D|--2-----2-----------2-----2-----2-----2-----2-----2--------2-----------2-----2--------------2--4--5--
A|-----------------------------------------------------3-----3--3--3--3--3--3--3-----------2-----------
E|-----------0--0--0-----0-----------0-----------0-----------------------------------0--3--------------


E|--------------------------------------------------------------------------------------------------------
B|--------------------------------------------------------------------------------------------------------
G|-----------4-----------4-----4-----4-----4-----4-----4--------4-----------4-----4-----4-----------------
D|-----------2-----------2-----2-----2-----2-----2-----2--------2-----------2-----2--------2--4--5--4--2--
A|--------------------------------------------------------3-----3--3--3--3--3--3--3-----------------------
E|--0-----------0--0--0-----0-----------0-----------0-----------------------------------------------------

E|-----------------------------------------------------------------------------------------------------
B|-----------------------------------------------------------------------------------------------------
G|--4-----4-----------4-----4-----4-----4-----4-----4--------4-----------4-----4-----------------------
D|--2-----2-----------2-----2-----2-----2-----2-----2--------2-----------2-----2--------------2--4--5--
A|-----------------------------------------------------3-----3--3--3--3--3--3--3-----------2-----------
E|-----------0--0--0-----0-----------0-----------0-----------------------------------0--3--------------

E|-----------------------------------------------------------------------------------------------------------
B|-----------------------------------------------------------------------------------------------------------
G|-----------4-----------4-----4-----4-----4-----4-----4--------4-----------4-----4-----2--2--2--2--2--2--2--
D|-----------2-----------2-----2-----2-----2-----2-----2--------2-----------2-----2-----0--0--0--0--0--0--0--
A|--------------------------------------------------------3-----3--3--3--3--3--3--3--------------------------
E|--0-----------0--0--0-----0-----------0-----------0--------------------------------------------------------





E|--------------------------------------------------------------------------------------
B|--------------------------------------------------------------------------------------
G|--------------------------------------------------------------------------------------
D|--------------2--5--2-----------------2--5--2-----------------2--5--------------------
A|--------------------------------------------------------------------------5-----7-----
E|--0-----0--0-----------0--0-----0--0-----------0--0-----0--0--------0--0--3-----5-----

E|--------------------------------------------------------------------------------------
B|--------------------------------------------------------------------------------------
G|--------------------------------------------------------------------------------------
D|--------------2--5--2-----------------2--5--2-----------------2--5--------4-----------
A|--------------------------------------------------------------------------2-----5-----
E|--0-----0--0-----------0--0-----0--0-----------0--0-----0--0--------0--0--------3-----

E|--------------------------------------------------------------------------------------
B|--------------------------------------------------------------------------------------
G|--------------------------------------------------------------------------------------
D|--------------2--5--2-----------------2--5--2-----------------2--5--------------------
A|--------------------------------------------------------------------------5-----7-----
E|--0-----0--0-----------0--0-----0--0-----------0--0-----0--0--------0--0--3-----5-----

E|--------------------------------------------------------------------------------------------------
B|--------------------------------------------------------------------------------------------------
G|--------------------------------------------------------------------------------------------------
D|--------------2--5--2-----------------2--5--2-----------------2--5--------------------------------
A|--------------------------------------------------------------------------7-----5-----4-----2-----
E|--0-----0--0-----------0--0-----0--0-----------0--0-----0--0--------0--0--5-----3-----2-----0-----

E|-----------------------------------------------------------------------------------------------------
B|-----------------------------------------------------------------------------------------------------
G|--4-----4-----------4-----4-----4-----4-----4-----4--------4-----------4-----4-----------------------
D|--2-----2-----------2-----2-----2-----2-----2-----2--------2-----------2-----2--------------2--4--5--
A|-----------------------------------------------------3-----3--3--3--3--3--3--3-----------2-----------
E|-----------0--0--0-----0-----------0-----------0-----------------------------------0--3--------------

E|--------------------------------------------------------------------------------------------------------
B|--------------------------------------------------3-----------------------------------------------------
G|-----------------------------------------------------4--------------------------------------------------
D|--------------------------------------------------------7-----7-----------7-----7-----9-----------------
A|--5--------5-----------5-----5-----2--------5--2--------5-----5--5--5--5--5--5--5--------7--9--10-9--7--
E|--3--------3--3--3--3--3--3--3--------3--2--------------------------------------------------------------

E|--------------------------------------------------------------------------------------------------------
B|--------------------------------------------------------------------------------------------------------
G|-----------4-----------4-----4-----4-----4-----4-----4--------4-----------4-----4-----------------------
D|-----------2-----------2-----2-----2-----2-----2-----2--------2-----------2-----2--------------2--4--5--
A|--------------------------------------------------------3-----3--3--3--3--3--3--3-----------2-----------
E|--0-----------0--0--0-----0-----------0-----------0-----------------------------------0--3--------------

E|--------------------------------------------------------------------------------------------------------
B|--------------------------------------------------3-----------------------------------------------------
G|-----------------------------------------------------4--------------------------------------------------
D|--------------------------------------------------------2-----2--------2-----2--------------------------
A|--5--------5-----------5-----5-----2--------5--2--------0-----0--0--0--0--0--0--------------------------
E|--3--------3--3--3--3--3--3--3--------3--2--------------------------------------------------------------

E|--------------------------------------------------------------------------------------------------
B|--------------------------------------------------------------------------------------------------
G|--------------------------------------------------------------------------------------------------
D|--7-----7-----------7-----7-----------------------8-----8-----------8-----8-----------------------
A|--5-----5--5--5--5--5--5--5--------------0--3--0--5-----5--5--5--5--5--5--5--------------0--3--0--
E|--------------------------------------------------------------------------------------------------

E|--------------------------------------------------------------------------------------------------
B|--------------------------------------------------------------------------------------------------
G|--------------------------------------------------------------------------------------------------
D|--3-----3-----------3-----3-----------------------2-----2-----------2-----2-----------------------
A|--1-----1--1--1--1--1--1--1--------------0--3--0--0-----0--0--0--0--0--0--0--------------0--3--0--
E|--------------------------------------------------------------------------------------------------

E|--------------------------------------------------------------------------------------------------------
B|--------------------------------------------------------------------------------------------------------
G|--------------------------------------------------------------------------------------------------------
D|--7-----7-----------7-----7-----7-----7--------------8-----8-----------8-----8-----8-----8--------------
A|--5-----5--5--5--5--5--5--5-----5--5--5-----0--3--0--5-----5--5--5--5--5--5--5-----5--5--5-----0--3--0--
E|--------------------------------------------------------------------------------------------------------

E|-----------------------------------------------------------------------------------------------------------
B|-----------------------------------------------------------------------------------------------------------
G|-----------------------------------------------------------------------------------------------------------
D|--3-----3-----------3-----3-----3-----3--------------------------5-----------------------7-----------4-----
A|--1-----1--1--1--1--1--1--1-----1--1--1-----0--3--0--4-----------3-----------5-----------5-----------2-----
E|-----------------------------------------------------2-----------------------3-----------------------------

E|--------------------------------------------
B|--------------------------------------------
G|--------------------------------------------
D|--4--4--4--4--4--4--4--4--4--4--4--4--4--4--
A|--2--2--2--2--2--2--2--2--2--2--2--2--2--2--
E|--------------------------------------------

E|-----------------------------------------------------------------------------------------------------
B|-----------------------------------------------------------------------------------------------------
G|--4-----4-----------4-----4-----4-----4-----4-----4--------4-----------4-----4-----------------------
D|--2-----2-----------2-----2-----2-----2-----2-----2--------2-----------2-----2--------------2--4--5--
A|-----------------------------------------------------3-----3--3--3--3--3--3--3-----------2-----------
E|-----------0--0--0-----0-----------0-----------0-----------------------------------0--3--------------

E|--------------------------------------------------------------------------------------------------------
B|--------------------------------------------------------------------------------------------------------
G|-----------4-----------4-----4-----4-----4-----4-----4--------4-----------4-----4-----4-----------------
D|-----------2-----------2-----2-----2-----2-----2-----2--------2-----------2-----2--------2--4--5--4--2--
A|--------------------------------------------------------3-----3--3--3--3--3--3--3-----------------------
E|--0-----------0--0--0-----0-----------0-----------0-----------------------------------------------------

The Shimphonic back track 2:20 - 2:50 (Kind of XD

E|-----------------------------------------------------------------------------------------------------------------
B|-----------------------------------------------------------------------------------------------------------------
G|-----------------------------4--------4--------4--------4--5--4--------------4--------4--5-----------------------
D|--7-----------------------5--------5--------5--------5-----------5--------5--------5-----------------------------
A|-----7--9--10-9--7--7-----------7--------7--------7-----------------7--3--------3--------------------------------
E|-----------------------------------------------------------------------------------------------------------------

E|--------------------------------------------------------------------------------------------
B|--------------------------------------------------------------------------------------------
G|-----------4--------4--------4--------4--5--4--------------4--------4--5--------------------
D|--------5--------5--------5--------5-----------5--------5--------5--------------------------
A|--7-----------7--------7--------7-----------------7--3--------3-----------------------------
E|--------------------------------------------------------------------------------------------

For the rest of the song you have to repeat some of the riffs

tabs and chords, guitar tabs, music transcription, music technology, deep learning, music information retrieval, transcribe into tabs & chords, chordify, music renditions, songsterr, reverbnation, tabulature, bollywood chords, ultimate guitar, yousician, guitar lessons, acoustic guitar, electric guitar, guitar tuner, 911 tabs