Guitar Tabs for Elliott Smith - Ballad Of Big Nothing

Elliott Smith - Ballad of Big Nothing

Intro

       (C)              (Am)               (C)                 (Am)    
E|--------------------------------------------------------------------------
B|--------------------------------------------------------------------------
G|--------------------------------------------------------------------------
D|--10\2--2--2-----10-2--2--2--2--2--0--2--2--2--2-----10\2-----2--2--2--2--
A|--------------------------------------------------------------------------
E|--------------------------------------------------------------------------

   (Fm)            (G)
E|--------------------------------------
B|--------------------------------------
G|--1--3--1--3-----5--7--9--10-12-12-12-
D|--------------------------------------
A|--------------------------------------
E|--------------------------------------

1st Verse

(G)
Throwing candy out to the crowd

(C)                 (D)
Dragging down the main

    (G)
The helpless little thing with the dirty mouth

      (C)                       (F)
Who's always got something to say

(G)
You're sitting at home now

(C)                           (D)
Waiting for your brother to call

(Dm)        (G)
I saw him down at the alley

(Fm)                      (G)
Having had enough of it all

Chorus

             (C)                   (Am)                   (Fm) (Dm) (Fm) (G)
Said you can do what you want to, whenever you want to

         (C)                          (Am)                 (Fm) (Dm) (Fm) (G)
You can do what you want to, there's no one to stop you

2nd Verse

(G)                                 (C)
All spit and spite, you're up all night

               (D)
And down every day

(G)
A tired man with only hours to go

     (C)                   (F)
Just waiting to be taken away

(G)
Getting into the back of a car

    (C)              (D)
For candy from some stranger

(Dm)              (G)                  (Fm)
watching the parade with pinpoint eyes

          (G)
Full of smoldering anger

Last Chorus

        (C)                    (Am)                   (Fm) (Dm) (Fm) (G)
You can do what you want to whenever you want to

        (C)                    (Am)                   (Fm) (Dm) (Fm) (G)
You can do what you want to, there's no one to stop you

            (C)                     (Am)
Now you can do what you want to whenever you want to

(C)                     (Am)
Do what you want to whenever you want to

(G)                     (E)
Do what you want to whenever you want to

(Am)                        (D)
Though it doesn't mean a thing

(F)         (Fm)
Big nothing

Ending

       (C)              (Am)               (C)                 (Am)    
E|--------------------------------------------------------------------------
B|--------------------------------------------------------------------------
G|--------------------------------------------------------------------------
D|--10\2--2--2-----10-2--2--2--2--2--0--2--2--2--2-----10\2-----2--2--2--2--
A|--------------------------------------------------------------------------
E|--------------------------------------------------------------------------

   (Fm)            (G)                       (C)
E|--------------------------------------
B|--------------------------------------
G|--1--3--1--3-----5--7--9--10-12-12-12-
D|--------------------------------------
A|--------------------------------------

----------------------------------------------------------------------------------------------------
Chords

    C     Am    Fm    G 
E|--0-----0-----1-----3--
B|--1-----1-----1-----3--
G|--0-----2-----1-----0--
D|--2-----2-----3-----0--
A|--3-----0-----3-----2--
E|--------------1-----3--

    D     F     Dm    E
E|--2-----1-----1-----0--
B|--3-----1-----3-----0--
G|--2-----2-----2-----1--
D|--0-----3-----0-----2--
A|--------3-----------2--
E|--------1-----------0--
tabs and chords, guitar tabs, music transcription, music technology, deep learning, music information retrieval, transcribe into tabs & chords, chordify, music renditions, songsterr, reverbnation, tabulature, bollywood chords, ultimate guitar, yousician, guitar lessons, acoustic guitar, electric guitar, guitar tuner, 911 tabs